>
 >
Life's What You Make It

Life's What You Make It Guitar Tabs

Hannah Montana - Life's What You Make It chords, tabs, tablatures, lyrics

Guitar lessons | Add/correct | Request | Top 50 tabs Artists:  A B C D E F G H I J K L M N O P Q R S T U V W X Y Z 0-9

Life's What You Make It Guitar Tabs – Hannah Montana

CD, Sheet music, Poster

Do you like Life's What You Make It? Share with your friends now
ChordsTabs
Hannah Montana – Life's What You Make It
----------------------------------------



### Intro ### 00:00 ###

e|-----------15-13---------------|-----------15-13-----------|
B|--12-13-12-------13-12-13------|--12-13-12-------13--11----|
G|--------------------------12---|---------------------------|
D|-------------------------------|---------------------------|
A|-------------------------------|---------------------------|
E|-------------------------------|---------------------------|


e|-----------15-13---------------|---------------------------|
B|--12-13-12-------13-12-13------|---------------------------|
G|--------------------------12---|--10-10-10-10-12--14-12----|
D|-------------------------------|---------------------------|
A|-------------------------------|---------------------------|
E|-------------------------------|---------------------------|



### Verse ### 00:13 ### [Don't let no small frustration..]

e|-------------------|-------------------------|
B|-------------------|-------------------------|
G|-------------------|-------------------------|
D|-------------------|----------3-3-5-5--------|
A|--5---5---5---5-5--|-5---5----1-1-3-3-3-3-5--|
E|--3---3---3---3-3--|-3---3------------1-1-3--|


e|-------------------|-------------------------|
B|-------------------|-------------------------|
G|-------------------|----------3-3-5-5-5-5-5--|
D|-------------------|----------3-3-5-5-5-5-5--|
A|--5---5---5---5-5--|-5---5----1-1-3-3-3-3-3--|
E|--3---3---3---3-3--|-3---3-------------------|


              [With a new attitude..]

e|----------------------------------|-------------------------------|
B|----------------------------------|-------------------------------|
G|--3-3-3-3-3-3-3-3-3-3-3-3-3-3-3-3-|-5-5-5-5-5-5-5-5---5-----5--5--|
D|--3-3-3-3-3-3-3-3-3-3-3-3-3-3-3-3-|-5-5-5-5-5-5-5-5---5-----5--5--|
A|--1-1-1-1-1-1-1-1-1-1-1-1-1-1-1-1-|-3-3-3-3-3-3-3-3-3-3-3-3-3--3--|
E|----------------------------------|-------------------------------|
pm______________________________________________________^_____^__^__   ^ = w/o pm


e|----------------------------------|----------------------------------|
B|----------------------------------|----------------------------------|
G|--3-3-3-3-3-3-3-3-3-3-3-3-3-3-3-3-|-5-5-5-5-5-5-5-5-5-5-5-5-5-5-5-5--|
D|--3-3-3-3-3-3-3-3-3-3-3-3-3-3-3-3-|-5-5-5-5-5-5-5-5-5-5-5-5-5-5-5-5--|
A|--1-1-1-1-1-1-1-1-1-1-1-1-1-1-1-1-|-3-3-3-3-3-3-3-3-3-3-3-3-3-3-3-3--|
E|----------------------------------|----------------------------------|
pm________________________________________________________^^^^^^^^^^^__



### Chorus ### 00:40 ### [Life's what you make it..]

    G                C                 E                 D
e|------------------|-----------------|-----------------|------------------|
B|------------------|-----------------|-----------------|------------------|
G|------------------|-5-5-5-5-5-5-5-5-|-9-9-9-9-9-9-9-9-|-7-7-7-7-7-7-7-7--|
D|--5-5-5-5-5-5-5-5-|-5-5-5-5-5-5-5-5-|-9-9-9-9-9-9-9-9-|-7-7-7-7-7-7-7-7--| 2x
A|--5-5-5-5-5-5-5-5-|-3-3-3-3-3-3-3-3-|-7-7-7-7-7-7-7-7-|-5-5-5-5-5-5-5-5--|
E|--3-3-3-3-3-3-3-3-|-----------------|-----------------|------------------|



### Interlude ### 00:53 ###

e|-----------15-13---------------|---------------------------|
B|--12-13-12-------13-12-13------|---------------------------|
G|--------------------------12---|--10-10-10-10-12--14-12----|
D|-------------------------------|---------------------------|
A|-------------------------------|---------------------------|
E|-------------------------------|---------------------------|



### Verse ### 01:00 ### [Why be sad, broken hearted..]

### Chorus ### 01:26 ### [Life's what you make it..]   2x!!



### Interlude ### 01:54 ### [Things are lookin' up..]

e|------------------|-----------------|-----------------|------------------|
B|------------------|-----------------|-----------------|------------------|
G|------------------|-----------------|-8-8-8-8-8-8-8-8-|------------------|
D|--3-3-3-3-3-3-3-3-|-2-2-2-2-2-2-2-2-|-8-8-8-8-8-8-8-8-|-8-8-8-8-8-8-8-8--|
A|--3-3-3-3-3-3-3-3-|-2-2-2-2-2-2-2-2-|-6-6-6-6-6-6-6-6-|-8-8-8-8-8-8-8-8--|
E|--1-1-1-1-1-1-1-1-|-0-0-0-0-0-0-0-0-|-----------------|-6-6-6-6-6-6-6-6--|
pm_________________________________________________________________________


e|------------------|-----------------|-----------------|------------------|
B|------------------|-----------------|-----------------|------------------|
G|------------------|-----------------|-8-8-8-8-8-8-8-8-|-8-8-8-8-8-8-8-8--|
D|--3-3-3-3-3-3-3-3-|-2-2-2-2-2-2-2-2-|-8-8-8-8-8-8-8-8-|-8-8-8-8-8-8-8-8--|
A|--3-3-3-3-3-3-3-3-|-2-2-2-2-2-2-2-2-|-6-6-6-6-6-6-6-6-|-6-6-6-6-6-6-6-6--|
E|--1-1-1-1-1-1-1-1-|-0-0-0-0-0-0-0-0-|-----------------|------------------|
pm________________________________________________________^^^^^^^^^^^^^^^__



### Rockin Guitar ### 02:07 ###

e|--------------|--------------------|     |------------------|------------------|
B|--------------|--------------------|     |------------------|------------------|
G|--3--5--------|--3--5--------------|     |--7-7-7-7-7-7-7-7-|-7-7-7-7-7-7-7-7--|
D|--3--5--3--5--|--3--5--3--5----xxx-| 3x  |--7-7-7-7-7-7-7-7-|-7-7-7-7-7-7-7-7--|
A|--1--3--3--5--|--1--3--3--5----xxx-|     |--5-5-5-5-5-5-5-5-|-5-5-5-5-5-5-5-5--|
E|--------1--3--|--------1--3----xxx-|     |------------------|------------------|


e|---------------------------|------------------------------|
B|---------------------------|------------------------------|
G|---------------------------|---------------3-3-5-5--------|
D|--5-----5-----5----5--5----|-5-----5-------3-3-5-5-3-3-5--|
A|--5-----5-----5----5--5----|-5-----5-------1-1-3-3-3-3-5--|
E|--3-333-3-333-3-33-3--3-33-|-3-333-3-333-----------1-1-3--|
pm__^_____^_____^____^__^______^_____^_______^^^^^^^^^^^^^__


e|---------------------------|--------------------------------|
B|---------------------------|--------------------------------|
G|---------------------------|---------------7-7-7-7-7-7-7-7--|
D|--5-----5-----5----5--5----|-5-----5-------7-7-7-7-7-7-7-7--|
A|--5-----5-----5----5--5----|-5-----5-------5-5-5-5-5-5-5-5--|
E|--3-333-3-333-3-33-3--3-33-|-3-333-3-333--------------------|
pm__^_____^_____^____^__^______^_____^_______^^^^^^^^^^^^^^^__



### Chorus / Ending ### 02:33 ### [Life's what you make it..]

e|--------------|--------------|--------------|--------------|
B|--------------|--------------|--------------|--------------|
G|--------------|--------------|--------------|--------------|
D|--5\----------|--------------|--------------|--------------|
A|--5\----------|--------------|--------------|--------------|
E|--3\----------|--------------|--------------|--------------|


e|--------------|--------------|--------------|------------------|
B|--------------|--------------|--------------|------------------|
G|--------------|--------------|--------------|---7-7-7-7-7-7-7--|
D|--------------|--------------|--------------|---7-7-7-7-7-7-7--|
A|--------------|--------------|--------------|---5-5-5-5-5-5-5--|
E|--------------|--------------|--------------|------------------|


e|------------------|-----------------|-----------------|------------------|
B|------------------|-----------------|-----------------|------------------|
G|------------------|-5-5-5-5-5-5-5-5-|-9-9-9-9-9-9-9-9-|-7-7-7-7-7-7-7-7--|
D|--5-5-5-5-5-5-5-5-|-5-5-5-5-5-5-5-5-|-9-9-9-9-9-9-9-9-|-7-7-7-7-7-7-7-7--| 2x
A|--5-5-5-5-5-5-5-5-|-3-3-3-3-3-3-3-3-|-7-7-7-7-7-7-7-7-|-5-5-5-5-5-5-5-5--|
E|--3-3-3-3-3-3-3-3-|-----------------|-----------------|------------------|


e|-------------------|-----------|
B|-------------------|-----------|
G|--7-7-7-7-7-7-7----|-----------|
D|--7-7-7-7-7-7-7-2--|-----------|
A|--5-5-5-5-5-5-5-2--|-----------|
E|----------------0--|--12\------|





Comments


Popular Hannah Montana tabs & chords
Dont Wanna Be Torn 3 Chords
One In A Million Chords
Rock Star Chords
Si Tu Jouais Dans Mon Film Chords
I've Got Nerve Tabs
Ive Got Nerve 1 Tabs
Lifes What You Make It Tabs
Rock Star Tabs
Who Said 1 Tabs
Other Side Of Me Ukulele


Song lyrics



↑ Back to top | Tablatures and chords are parodies/interpretations of the original songs. You may use it for private study, scholarship, research or language learning purposes only
© 2014 AZChords.com Contact us | Privacy policy | DMCA | Add/correct tabs | Request tabs | Top 50 tabs