» » »

Hannah Montana, Life's What You Make It Tabs (ver.1)

Artists:  A B C D E F G H I J K L M N O P Q R S T U V W X Y Z # 

Life's What You Make It Tabs (ver.1)

Hannah Montana Tabs
 Rating:
4/5 (4 votes)
Life's What You Make It lessons Tabs too difficult? Try these video lessons and learn fast
1
                (Intro)
I haven't figured out the whole song but here's the intro. I'm pretty sure it's all correct.


E----------15-13-------------|
B-12-13-12-------13-12-13----|
G-------------------------12-|
D----------------------------|  
A----------------------------|

E----------15-13-------------|
B-12-13-12-------13-11-------|(let it ring)
G----------------------------|
D----------------------------|  
A----------------------------|

E----------15-13-------------|
B-12-13-12-------13-12-13----|
G-------------------------12-|
D----------------------------|  
A----------------------------|

E----------------------------|
B----------------------------|
G-10-10-10-10-12-14-12-------|
D----------------------------|  
A----------------------------|

E----------------------------|
B-12-12-14-14-10-10-12-------|
G----------------------------|
D-10-10-12-12-8--8--10-------|  
A----------------------------|
            
Submit corrections

comments powered by Disqus
↑ Back to top | Hannah Montana Tabs for Life's What You Make It. Lyrics for acoustic guitar and electric guitar. 1 Tablatures and chords are parodies/interpretations of the original songs. You may use it for private study, scholarship, research or language learning purposes only