>
 >
I Got Nerve

I Got Nerve Guitar Tabs

Hannah Montana - I Got Nerve chords, tabs, tablatures, lyrics

Guitar lessons | Add/correct | Request | Top 50 tabs Artists:  A B C D E F G H I J K L M N O P Q R S T U V W X Y Z 0-9

I Got Nerve Guitar Tabs – Hannah Montana

CD, Sheet music, Poster

Do you like I Got Nerve? Share with your friends now
Bass TabsChordsTabsTabs v2Ukulele
***UPDATED 6/18/08***
THIS IS 100% ACCURATE (based on chord book)



Hannah Montana
Hannah Montana Soundtrack
(2006)



Intro
E------------------------------------------------|
B------------------------------------------------|
G-8-8---8-8---8-8--------------------------------|
D-8-8---8-8---8-8--5-6---------------------------|
A-6-6---6-6---6-6--5-6---------------------------|
E------------------3-4---------------------------|



Verse
E-------------------------------------------------------|
B-------------------------------------------------------|
G-8-8---8-8---------------------------------------------|
D-8-8---8-8---8-8---8-8---5-5---5-5---6-6---6-6---6\----|
A-6-6---6-6---8-8---8-8---5-5---5-5---6-6---6-6---6\----|
E-------------6-6---6-6---3-3---3-3---4-4---4-4---4\----|
                                                  
                                                  (slide down)



Pre-Chorus  (palm muting on these notes) (last one gradually release)
E-------------------------------------------------------------|
B-------------------------------------------------------------|
G-------------------------------------------------------------|
D-6-(x8)---3-(x8)-----10-(x16)----6-(x8)------8-(x8)----------|
A-6--------3----------10----------6-----------8---------------|
E-4--------1----------8-----------4-----------6---------------|
  x        x          x           x           x   
                                              


Chorus
E------------------------------------------------------------|
B------------------------------------------------------------|
G-8----------------------------------------------------------|
D-8---------6-(x8)-----10-(x8)-----8-(x8)--------------------|  x2
A-6-(x8)----6----------10----------8-------------------------|
E-----------4----------8-----------6-------------------------|



Post-Chorus (similar to intro)
E------------------------------------------|
B------------------------------------------|
G-8-8---8-8--------------------------------|
D-8-8---8-8--5-6---------------------------|
A-6-6---6-6--5-6---------------------------|
E------------3-4---------------------------|



Verse 2
E--------------------------------------------------------------|
B--------------------------------------------------------------|
G-8-8---8--8---------------------------------------------------|
D-8-8---8--8---8-8---8-8---8\-5-5---5-5---5/-6-6---6-6---6\----|
A-6-6---6--6---8-8---8-8---8\-5-5---5-5---5/-6-6---6-6---6\----|
E--------------6-6---6-6---6\-3-3---3-3---3/-4-4---4-4---4\----|
                          
                          (slide up, but still         (slide down)
                           hit both notes)                        


Pre-Chorus 2 (palm muting) (gradual release on the last note)
E-------------------------------------------------------------|
B-------------------------------------------------------------|
G-------------------------------------------------------------|
D-6-(x8)---3-(x8)-----10-(x16)----6-(x8)------8-(x8)----------|
A-6--------3----------10----------6-----------8---------------|
E-4--------1----------8-----------4-----------6---------------|
  x        x          x           x           x   



Chorus 2
E------------------------------------------------------------|
B------------------------------------------------------------|
G-8----------------------------------------------------------|   
D-8---------6-(x8)-----10-(x8)-----8-(x8)--------------------|  x4
A-6-(x8)----6----------10----------8-------------------------|
E-----------4----------8-----------6-------------------------|
 

Bridge (play around with this bit)
E------------------------------------------------------------|
B------------------------------------------------------------|
G-5-5---5-5---3-3---3-3---3/-6-6---6-6-----------------------|
D-5-5---5-5---3-3---3-3---3/-6-6---6-6----6-6---6-6---666----|
A-3-3---3-3---1-1---1-1---1/-4-4---4-4----6-6---6-6---666----|
E-----------------------------------------4-4---4-4---444----|

E------------------------------------------------------------|
B------------------------------------------------------------|
G-5-5---5-5---3-3---3-3---3/-6-6---6-6-----------------------|
D-5-5---5-5---3-3---3-3---3/-6-6---6-6----6-6---6-6----------|
A-3-3---3-3---1-1---1-1---1/-4-4---4-4----6-6---6-6----------|
E-----------------------------------------4-4---4-4----------|



Bridge 2
E------------------------------------------------------------|
B------------------------------------------------------------|
G-8-(let ring)---5-(let ring)---3-(let ring)-----------------|
D-8--------------5--------------3----------------------------|
A-6--------------3--------------1----------------------------|
E------------------------------------------------------------|



Chorus 3
E------------------------------------------------------------|
B------------------------------------------------------------|
G-8----------------------------------------------------------|
D-8---------6-(x8)-----10-(x8)-----8-(x8)--------------------|   x6
A-6-(x8)----6----------10----------8-------------------------|
E-----------4----------8-----------6-------------------------|
                               
 


Outro                                                              
E------------------------------------------------------------|
B------------------------------------------------------------|
G-8----------------------------------------------------------|
D-8---------6-(x8)-----10-(x8)-----8-(let ring)--------------|
A-6-(x8)----6----------10----------8-------------------------|
E-----------4----------8-----------6-------------------------|

E---------------------------------------------|
B---------------------------------------------|
G-8-8---------8-8-------8-8-------8-8---------|
D-8-8----5-6--8-8--5-6--8-8--5-6--8-8---------|
A-6-6----5-6--6-6--5-6--6-6--5-6--6-6---------|
E--------3-4-------3-4-------3-4--------------|





this is a great cover to watch and learn too^^^


*this is my first tab.  suggestions would be appreciated.  thank you and 
 enjoy playing this awesome song :)




| /  slide up
| \  slide down
| x  Mute note





Comments


Popular Hannah Montana tabs & chords
Bigger Than Us 1 Chords
Every Part Of Me 4 Chords
Just Like You 1 Chords
Ordinary Girl Chords
Best Of Both Worlds 1 Tabs
Other Side Of Me Tabs
All Right Here Ukulele
Dont Wanna Be Torn 2 Ukulele
Every Part Of Me Ukulele
Ive Got Nerve Intro Ukulele


Song lyrics



↑ Back to top | Tablatures and chords are parodies/interpretations of the original songs. You may use it for private study, scholarship, research or language learning purposes only
© 2014 AZChords.com Contact us | Privacy policy | DMCA | Add/correct tabs | Request tabs | Top 50 tabs