» » »

Hannah Montana, I Got Nerve Bass tabs (ver.1)

Artists:  A B C D E F G H I J K L M N O P Q R S T U V W X Y Z # 

I Got Nerve Bass tabs (ver.1)

Hannah Montana Tabs
 Rating:
4/5 (4 votes)
I Got Nerve lessons Tabs too difficult? Try these video lessons and learn fast
1
                -------------------------------------------------------------------------------
-------------------------------------------------------------------------------


INTRO:
G|----------------|
D|----------------|
A|-66-66-66-------|
E|-----------3-4--|

VERSE:
G|--------------------------|
D|--------------------------|
A|-66-66--------------------|
E|-------66-66-33-33-44-44--|

G|------------------------------------|
D|------------------------------------|
A|------------------3333333333333333--|
E|-4444444411111111-------------------|

G|-------------------|
D|-------------------|
A|-------------------|
E|-4444444466666666--|

CHORUS:
G|--------------------------------------|
D|--------------------------------------|
A|-66666666----------33333333-----------|  X2
E|----------44444444----------66666666--|

THEN:
G|------------|
D|------------|
A|-66-66------|
E|-------3-4--|

VERSE X1
CHORUS X4

BREAKDOWN:
G|--------------------------|
D|--------------------------|
A|-33-33-------44-44--------|  X2
E|-------66-66-------44-44--|

"Iknow where I stand..."
G|-----|
D|-----|
A|-6~--|
E|-----|

@ "It's every part of me...":
DO CHORUS X7

OUTRO:
G|---------|
D|---------|
A|-66------|  X3
E|----3-4--|

G|-----|
D|-----|
A|-66--|
E|-----|

| /  slide up
| \  slide down
| h  hammer-on
| p  pull-off
| ~  vibrato
| +  harmonic
| x  Mute note
===============================================================================
            
Submit corrections

comments powered by Disqus
↑ Back to top | Hannah Montana Bass for I Got Nerve. Lyrics for acoustic guitar and electric guitar. 1 Tablatures and chords are parodies/interpretations of the original songs. You may use it for private study, scholarship, research or language learning purposes only