>
 >
Warriors Of Faith

Warriors Of Faith Bass Tabs

Hammerfall - Warriors Of Faith chords, tabs, tablatures, lyrics

Guitar lessons | Add/correct | Request | Top 50 tabs Artists:  A B C D E F G H I J K L M N O P Q R S T U V W X Y Z 0-9

Warriors Of Faith Bass Tabs – Hammerfall

CD, Sheet music, Poster

Do you like Warriors Of Faith? Share with your friends now
Bass TabsTabs
      W                   W                   W                 
F#||-------------------|-------------------|-------------------|
C#||-------------------|-------------------|-------------------|
G#||-------------------|-------------------|-------------------|
D#||-------------------|-------------------|-------------------|


  Q    Q    Q    Q       W                   W                 
----------------------|-------------------|-------------------|
----------------------|-------------------|-------------------|
------------3----3----|--5----------------|--L----------------|
----------------------|-------------------|-------------------|


  E  E  H        Q       Q    Q    Q    Q       W                 
----------------------|----------------------|-------------------|
----------------------|--5-------------------|-------------------|
--5--5----------------|-------8----7---------|-------------------|
----------------------|-----------------8----|--6----------------|


  W                   E  E  S S S S S S S S Q       E  E  S S S S S S S S Q     
-------------------|-----------------------------|-----------------------------|
-------------------|-----------------------------|-----------------------------|
-------------------|--5--5--5-5-5-5-5-5-5-5-8----|--5--5--5-5-5-5-5-5-5-5-3----|
-------------------|-----------------------------|-----------------------------|


  E  E  S S S S S S S S Q        Q    Q    Q    Q     
-----------------------------|-----------------------|
-----------------------------|-----------------------|
--5--5--5-5-5-5-5-5-5-5-8----|--10----8----7---------|
-----------------------------|------------------8----|


  E  E  S S S S S S S S Q       E  E  S S S S S S S S Q     
-----------------------------|-----------------------------|
-----------------------------|-----------------------------|
--5--5--5-5-5-5-5-5-5-5-8----|--5--5--5-5-5-5-5-5-5-5-3----|
-----------------------------|-----------------------------|


  E  E  S S S S S S S S Q        Q    Q    Q    Q       W                 
-----------------------------|-----------------------|-------------------|
-----------------------------|-----------------------|-------------------|
--5--5--5-5-5-5-5-5-5-5-8----|--10----8----7---------|-------------------|
-----------------------------|------------------8----|--6----------------|


  W                     E  Q    Q    Q    E     E  Q    Q    E  E  E   
-------------------||------------------------|------------------------|
-------------------||*-----------------------|------------------------|
-------------------||*-----------------------|------------------------|
-------------------||---5-----------------3--|--5------------5--L--3--|


  E  H        Q.        W                     S S S S S S S S S S S S S S E   
---------------------|--------------------||---------------------------------|
---------------------|-------------------*||---------------------------------|
---------------------|-------------------*||---------------------------------|
--L--1--------L------|--------------------||--5-5-5-5-5-5-5-5-5-5-5-5-5-5-3--|


  S S S S S S S S Q    Q       W                 
----------------------------|-------------------|
----------------------------|-------------------|
----------------------------|-------------------|
--5-5-5-5-5-5-5-5-5----3----|--1----------------|


  S S S S S S S S S S S S S S S S    S S S S S S S S S S S S S S E   
----------------------------------|---------------------------------|
----------------------------------|---------------------------------|
------------------5-5-5-5---------|---------------------------------|
--5-5-5-5-8-8-8-8---------7-7-7-7-|--5-5-5-5-5-5-5-5-5-5-5-5-5-5-3--|


  S S S S S S S S Q    Q       W                 
----------------------------|-------------------|
----------------------------|-------------------|
----------------------------|-------------------|
--5-5-5-5-5-5-5-5-5----3----|--1----------------|


  S S S S S S S S S S S S S S S S    S S S S S S S S S S S S S S S S  
----------------------------------|----------------------------------|
----------------------------------|----------------------------------|
------------------5-5-5-5---------|--7-7-7-7-7-7-7-7-7-7-7-7-7-7-7-7-|
--5-5-5-5-8-8-8-8---------7-7-7-7-|----------------------------------|


   S  S  S  S  S  S  S  S S S S S S S S S  
------------------------------------------|
--------------------------7-7-7-7-7-7-7-7-|
--10-10-10-10-10-10-10-10-----------------|
------------------------------------------|


  S S S S S S S S  S  S  S  S  S  S  S  S    H        H         
------------------------------------------|--------------------|
--9-9-9-9-9-9-9-9-12-12-12-12-10-10-10-10-|--0-----------------|
------------------------------------------|-----------2--------|
------------------------------------------|--------------------|


  S S S S S S S S S S S S S S S S    S S S S S S S S S S S S S S S S  
----------------------------------|----------------------------------|
----------------------------------|----------------------------------|
--3-3-3-3-3-3-3-3-3-3-3-3-3-3-3-3-|--5-5-5-5-5-5-5-5-5-5-5-5-5-5-5-5-|
----------------------------------|----------------------------------|


  H        H           H        Q    Q       S S S S S S S S S S S S S S S S  
--------------------|---------------------|----------------------------------|
--------------------|---------------------|----------------------------------|
--------------------|-----------5----2----|--3-3-3-3-3-3-3-3-3-3-3-3-3-3-3-3-|
--3--------2--------|--0------------------|----------------------------------|


  S S S S S S S S S S S S S S S S    S S S S S S S S Q    Q     
----------------------------------|----------------------------|
----------------------------------|----------------------------|
--5-5-5-5-5-5-5-5-5-5-5-5-5-5-5-5-|--0-0-0-0-0-0-0-0-----------|
----------------------------------|------------------3----5----|


  S S S  S S S  S S Q    Q       E  E  S S S S S S S S Q     
------------------------------|-----------------------------|
------------------7-9---------|-----------------------------|
-----------7-9-10-------------|--5--5--5-5-5-5-5-5-5-5-8----|
--7-7-8-10--------------------|-----------------------------|


  E  E  S S S S S S S S Q       E  E  S S S S S S S S Q     
-----------------------------|-----------------------------|
-----------------------------|-----------------------------|
--5--5--5-5-5-5-5-5-5-5-3----|--5--5--5-5-5-5-5-5-5-5-8----|
-----------------------------|-----------------------------|


   Q    Q    Q    Q       E  E  S S S S S S S S Q     
-----------------------|-----------------------------|
-----------------------|-----------------------------|
--10----8----7---------|--5--5--5-5-5-5-5-5-5-5-8----|
------------------8----|-----------------------------|


  E  E  S S S S S S S S Q       E  E  S S S S S S S S Q     
-----------------------------|-----------------------------|
-----------------------------|-----------------------------|
--5--5--5-5-5-5-5-5-5-5-3----|--5--5--5-5-5-5-5-5-5-5-8----|
-----------------------------|-----------------------------|


   Q    Q    Q    Q       W                 
-----------------------|-------------------|
-----------------------|-------------------|
--10----8----7---------|-------------------|
------------------8----|--6----------------|


  S S S S  S  S S S  S  S S S S S  S  S      S S S S S S S S S S S S S S E   
----------------7-7-10-10-9-9-7-7-------||----------------------------------|
--7-7-9-9-10-10-------------------10-10-||*---------------------------------|
----------------------------------------||*---------------------------------|
----------------------------------------||---5-5-5-5-5-5-5-5-5-5-5-5-5-5-3--|


  S S S S S S S S Q    Q       W                 
----------------------------|-------------------|
----------------------------|-------------------|
----------------------------|-------------------|
--5-5-5-5-5-5-5-5-5----3----|--1----------------|


  S S S S S S S S S S S S S S S S      S S S S S S S S S S S S S S S S  
-----------------------------------||----------------------------------|
----------------------------------*||----------------------------------|
------------------5-5-5-5---------*||------------------5-5-5-5---------|
--5-5-5-5-8-8-8-8---------7-7-7-7--||--5-5-5-5-8-8-8-8---------7-7-7-7-|


  S S S S S S S S S S S S S S S S     S  S  S  S  S  S  S  S S S S S S S S S  
----------------------------------|------------------------------------------|
----------------------------------|--------------------------7-7-7-7-7-7-7-7-|
--7-7-7-7-7-7-7-7-7-7-7-7-7-7-7-7-|--10-10-10-10-10-10-10-10-----------------|
----------------------------------|------------------------------------------|


  S S S S S S S S  S  S  S  S  S  S  S  S    H        H         
------------------------------------------|--------------------|
--9-9-9-9-9-9-9-9-12-12-12-12-10-10-10-10-|--0-----------------|
------------------------------------------|-----------2--------|
------------------------------------------|--------------------|


  S S S S S S S S S S S S S S S S    S S S S S S S S S S S S S S S S  
----------------------------------|----------------------------------|
----------------------------------|----------------------------------|
--3-3-3-3-3-3-3-3-3-3-3-3-3-3-3-3-|--5-5-5-5-5-5-5-5-5-5-5-5-5-5-5-5-|
----------------------------------|----------------------------------|


  H        H           H        Q    Q       S S S S S S S S S S S S S S S S  
--------------------|---------------------|----------------------------------|
--------------------|---------------------|----------------------------------|
--------------------|-----------5----2----|--3-3-3-3-3-3-3-3-3-3-3-3-3-3-3-3-|
--3--------2--------|--0------------------|----------------------------------|


  S S S S S S S S S S S S S S S S    S S S S S S S S Q    Q     
----------------------------------|----------------------------|
----------------------------------|----------------------------|
--5-5-5-5-5-5-5-5-5-5-5-5-5-5-5-5-|--0-0-0-0-0-0-0-0-----------|
----------------------------------|------------------3----5----|


  S S S  S S S  S S Q    Q       H.           Q       W                 
------------------------------|--------------------|-------------------|
------------------7-9---------|--------------------|-------------------|
-----------7-9-10-------------|--------------------|-------------------|
--7-7-8-10--------------------|--3------------5----|--2----------------|


  H.           Q       H        H           H.           Q     
--------------------|--------------------|--------------------|
--------------------|--------------------|--------------------|
--3------------5----|--2--------0--------|--------------------|
--------------------|--------------------|--3------------5----|


  W                   H.           Q       H        H         
-------------------|--------------------|--------------------|
-------------------|--------------------|--------------------|
-------------------|--3------------5----|--2--------0--------|
--2----------------|--------------------|--------------------|


  W                   W                   E  E  E  E  E  E  S S S S  
-------------------|-------------------|----------------------------|
-------------------|-------------------|----------------------------|
-------------------|-------------------|--5--5--5--5--5--5--5-5-5-5-|
--1----------------|--0----------------|----------------------------|


  E  E  E  E  E  E  S S S S    E  E  E  E  E  E  S S S S  
----------------------------|----------------------------|
----------------------------|----------------------------|
--5--5--5--5--5--5--5-5-5-5-|--5--5--5--5--5--5--5-5-5-5-|
----------------------------|----------------------------|


  E  E   E  E  E  E  E  E     E  E  E  E  E  E  E  E   
---------------------------|--------------------------|
---------------------------|--------------------------|
------------7--8--7--5-----|--5--5--5--5--5--5--5--5--|
--6--8--10--------------8--|--------------------------|


  E  E  E  E  E  E  E  E     E  E  E  E  E  E  E  E   
--------------------------|--------------------------|
--------------------------|--------------------------|
--5--5--5--5--5--5--5--5--|--5--5--5--5--5--5--5--5--|
--------------------------|--------------------------|


  E  E  E  E  E  E  E  E     E  E  E  E  E  E  E  E   
--------------------------|--------------------------|
-----5--------------------|--------------------------|
--5-----8--7--5-----5--7--|--5--5--5--5--5--5--5--5--|
-----------------8--------|--------------------------|


  E  E  E  E  E  E  E  E     E  E  E  E  E  E  E  E   
--------------------------|--------------------------|
--------------------------|--------------------------|
--5--5--5--5--5--5--5--5--|--5--5--5--5--5--5--5--5--|
--------------------------|--------------------------|


  E  E  E  E  E  E  E  E     E  E  E  E  E  E  E  E   
--------------------------|--------------------------|
-----5--------------------|--------------------------|
--5-----8--7--5-----5--7--|--------------------------|
-----------------8--------|--5--5--5--5--5--5--5--5--|


  E  E  E  E  E  E  E  E     E  E  E  E  E  E  E  E   
--------------------------|--------------------------|
--------------------------|--------------------------|
--------------------------|--------------------------|
--5--5--5--5--5--5--5--5--|--5--5--5--5--5--5--5--5--|


  E  E   E  E  E   E  E  E     E  E  E  E  E  E  E  E   
----------------------------|--------------------------|
-----7----------------------|--------------------------|
--7-----10--9--7------7--9--|--5--5--5--5--5--5--5--5--|
------------------10--------|--------------------------|


  E  E  E  E  E  E  E  E     E  E  E  E  E  E  E  E   
--------------------------|--------------------------|
--------------------------|--------------------------|
--5--5--5--5--5--5--5--5--|--5--5--5--5--5--5--5--5--|
--------------------------|--------------------------|


  E  E  E  E  E  E  E  E     W                   W                 
--------------------------|-------------------|-------------------|
-----5--------------------|-------------------|-------------------|
--5-----8--7--5-----7--3--|--3----------------|--L----------------|
-----------------8--------|-------------------|-------------------|


  S S S S S S S S S S S S S S S S    S S S S S S S S S S S S S S S S  
----------------------------------|----------------------------------|
----------------------------------|----------------------------------|
--2-2-2-2-2-2-2-2-2-2-2-2-2-2-2-2-|--2-2-2-2-2-2-2-2-2-2-2-2-2-2-2-2-|
----------------------------------|----------------------------------|


  S S S S S S S S S S S S S S S S    S S S S S S S S S S S S S S S S  
----------------------------------|----------------------------------|
----------------------------------|----------------------------------|
--2-2-2-2-2-2-2-2-2-2-2-2-2-2-2-2-|--2-2-2-2-2-2-2-2-2-2-2-2-2-2-2-2-|
----------------------------------|----------------------------------|


  S S S S S S S S S S S S S S S S    S S S S S S S S S S S S S S S S  
----------------------------------|----------------------------------|
----------------------------------|----------------------------------|
--7-7-7-7-7-7-7-7-7-7-7-7-7-7-7-7-|--7-7-7-7-7-7-7-7-7-7-7-7-7-7-7-7-|
----------------------------------|----------------------------------|


  S S S S S S S S S S S S S S S S    S S S S S S S S S S S S S S S S  
----------------------------------|----------------------------------|
----------------------------------|----------------------------------|
--7-7-7-7-7-7-7-7-7-7-7-7-7-7-7-7-|--7-7-7-7-7-7-7-7-7-7-7-7-7-7-7-7-|
----------------------------------|----------------------------------|


  S S S S S S S S S S S S S S S S    S S S S S S S S S S S S S S S S  
----------------------------------|----------------------------------|
----------------------------------|----------------------------------|
--2-2-2-2-2-2-2-2-2-2-2-2-2-2-2-2-|--2-2-2-2-2-2-2-2-2-2-2-2-2-2-2-2-|
----------------------------------|----------------------------------|


  S S S S S S S S S S S S S S S S    S S S S S S S S S S S S S S S S  
----------------------------------|----------------------------------|
----------------------------------|----------------------------------|
--2-2-2-2-2-2-2-2-2-2-2-2-2-2-2-2-|--2-2-2-2-2-2-2-2-2-2-2-2-2-2-2-2-|
----------------------------------|----------------------------------|


  S S S S S S S S S S S S S S S S    S S S S S S S S S S S S S S S S  
----------------------------------|----------------------------------|
----------------------------------|----------------------------------|
--7-7-7-7-7-7-7-7-7-7-7-7-7-7-7-7-|--7-7-7-7-7-7-7-7-7-7-7-7-7-7-7-7-|
----------------------------------|----------------------------------|


  S S S S S S S S S S S S S S S S    S S S S S S S S Q    Q     
----------------------------------|----------------------------|
----------------------------------|----------------------------|
--7-7-7-7-7-7-7-7-7-7-7-7-7-7-7-7-|--7-7-7-7-7-7-7-7-----------|
----------------------------------|------------------3----5----|


  S S S S S S S S S S S S E  E     S S S S S S S S S S S S E  E   
--------------------------------|--------------------------------|
--------------------------------|--------------------------------|
--------------------------------|--------------------------------|
--7-7-7-7-7-7-7-7-7-7-7-7-3--5--|--7-7-7-7-7-7-7-7-7-7-7-7-3--5--|


  S S S S S S S S S S S S E  E     S S S S S S S S S S S S E  E   
--------------------------------|--------------------------------|
--------------------------------|--------------------------------|
--------------------------3--5--|--------------------------3--5--|
--0-0-0-0-0-0-0-0-0-0-0-0-------|--0-0-0-0-0-0-0-0-0-0-0-0-------|


  H        E  E  Q       S S S S S S S S S S S S S S S S  
----------------------|----------------------------------|
----------------------|----------------------------------|
--3--------5----------|--7-7-7-7-7-7-7-7-7-7-7-7-7-7-7-7-|
----------------------|----------------------------------|


   S  S  S  S  S  S  S  S S S S S S S S S  
------------------------------------------|
--------------------------7-7-7-7-7-7-7-7-|
--10-10-10-10-10-10-10-10-----------------|
------------------------------------------|


  S S S S S S S S  S  S  S  S  S  S  S  S    H        H         
------------------------------------------|--------------------|
--9-9-9-9-9-9-9-9-12-12-12-12-10-10-10-10-|--0-----------------|
------------------------------------------|-----------2--------|
------------------------------------------|--------------------|


  S S S S S S S S S S S S S S S S    S S S S S S S S S S S S S S S S  
----------------------------------|----------------------------------|
----------------------------------|----------------------------------|
--3-3-3-3-3-3-3-3-3-3-3-3-3-3-3-3-|--5-5-5-5-5-5-5-5-5-5-5-5-5-5-5-5-|
----------------------------------|----------------------------------|


  H        H           H        Q    Q       S S S S S S S S S S S S S S S S  
--------------------|---------------------|----------------------------------|
--------------------|---------------------|----------------------------------|
--------------------|-----------5----2----|--3-3-3-3-3-3-3-3-3-3-3-3-3-3-3-3-|
--3--------2--------|--0------------------|----------------------------------|


  S S S S S S S S S S S S S S S S    S S S S S S S S Q    Q     
----------------------------------|----------------------------|
----------------------------------|----------------------------|
--5-5-5-5-5-5-5-5-5-5-5-5-5-5-5-5-|--0-0-0-0-0-0-0-0-----------|
----------------------------------|------------------3----5----|


  S S S  S S S  S S Q    Q       H.           Q       W                 
------------------------------|--------------------|-------------------|
------------------7-9---------|--------------------|-------------------|
-----------7-9-10-------------|--------------------|-------------------|
--7-7-8-10--------------------|--3------------5----|--2----------------|


  H.           Q       H        H           H.           Q     
--------------------|--------------------|--------------------|
--------------------|--------------------|--------------------|
--3------------5----|--2--------0--------|--------------------|
--------------------|--------------------|--3------------5----|


  W                   H.           Q       H        H         
-------------------|--------------------|--------------------|
-------------------|--------------------|--------------------|
-------------------|--3------------5----|--2--------0--------|
--2----------------|--------------------|--------------------|


  S S S S S S S S S S S S S S S S    S S S S S S S S S S S S S S S S  
----------------------------------|----------------------------------|
----------------------------------|----------------------------------|
----------------------------------|----------------------------------|
--3-3-3-3-3-3-3-3-3-3-3-3-3-3-3-3-|--2-2-2-2-2-2-2-2-2-2-2-2-2-2-2-2-|


  S S S S S S S S S S S S S S S S    S S S S S S S S S S S S S S S S  
----------------------------------|----------------------------------|
----------------------------------|----------------------------------|
--3-3-3-3-3-3-3-3-3-3-3-3-3-3-3-3-|--2-2-2-2-2-2-2-2-0-0-0-0-0-0-0-0-|
----------------------------------|----------------------------------|


  S S S S S S S S S S S S S S S S    S S S S S S S S S S S S S S S S  
----------------------------------|----------------------------------|
----------------------------------|----------------------------------|
----------------------------------|----------------------------------|
--3-3-3-3-3-3-3-3-3-3-3-3-3-3-3-3-|--2-2-2-2-2-2-2-2-2-2-2-2-2-2-2-2-|


  S S S S S S S S S S S S S S S S    S S S S S S S S S S S S S S S S  
----------------------------------|----------------------------------|
----------------------------------|----------------------------------|
--3-3-3-3-3-3-3-3-3-3-3-3-3-3-3-3-|--2-2-2-2-2-2-2-2-0-0-0-0-0-0-0-0-|
----------------------------------|----------------------------------|


  W                   W                   E  E  E  E  E  E  S S S S  
-------------------|-------------------|----------------------------|
-------------------|-------------------|----------------------------|
-------------------|-------------------|--5--5--5--5--5--5--5-5-5-5-|
--1----------------|--0----------------|----------------------------|


  E  E  E  E  E  E  S S S S    E  E  E  E  E  E  S S S S  
----------------------------|----------------------------|
----------------------------|----------------------------|
--5--5--5--5--5--5--5-5-5-5-|--5--5--5--5--5--5--5-5-5-5-|
----------------------------|----------------------------|


  S S S S S S S S S S S S S S S S    E  E  S S S S S S S S Q     
----------------------------------|-----------------------------|
----------------------------------|-----------------------------|
--------------5-5-8-8-7-7-5-5-----|--5--5--5-5-5-5-5-5-5-5-8----|
--5-5-7-7-8-8-----------------8-8-|-----------------------------|


  W                  
-------------------||
-------------------||
--5----------------||
-------------------||




Duration Legend
---------------
W - whole
H - half
Q - quarter
E - 8th
S - 16th
T - 32nd
X - 64th
. - note dotted
|-n-|  - n-tuplets


Tablature Legend
----------------
L - tied note
x - dead note
g - grace note
(n) - ghost note
> - accentuded note
NH - natural harmonic
AH - artificial harmonic
TH - tapped harmonic
SH - semi harmonic
PH - pitch harmonic
h - hammer on
p - pull off
b - bend
br - bendRelease
pb - preBend
pbr - preBendRelease
brb - bendReleaseBend
\n/ - tremolo bar dip
\n - tremolo bar dive
-/n - tremolo bar Release up
/n\ - tremolo bar inverted dip
/n - tremolo bar return
-\n - tremolo bar Release down
S - shift slide
s - legato slide
/ -  slide into from below or out of upwards
\ -  slide into from above or out of downwards
~ - vibrato
W - wide vibrato
tr - trill
TP - tremolo picking
T - tapping
S - slap
P - pop
< - fade in
^ - brush up
v - brush down





Comments


Popular Hammerfall tabs & chords
Dreams Come True Bass Tabs
Glory To The Brave Bass Tabs
Glory To The Brave 1 Chords
I Believe Chords
Nr Vindarna Viskar Mitt Namn Chords
Carved In Stone Part 2 Tabs
Hearts On Fire Tabs
Imperial 1 Tabs
Life Is Now Tabs
Rebel Inside Ukulele


Song lyrics



↑ Back to top | Tablatures and chords are parodies/interpretations of the original songs. You may use it for private study, scholarship, research or language learning purposes only
© 2014 AZChords.com Contact us | Privacy policy | DMCA | Add/correct tabs | Request tabs | Top 50 tabs