» » »

Stone Cold Tabs (ver.1)

Artists:  A B C D E F G H I J K L M N O P Q R S T U V W X Y Z # 

Stone Cold Tabs (ver.1)

Hammerfall
Rating:
0/5 (0 votes)

Hard to play? Try these video lessons and learn fast.
                Tuning: Tune down all strings to Eb

INTRO: 2x

Eb|-------------------------------------------------------------|
Bb|-------------------------------------------------------------|
Gb|-------------------------------------------------------------|
Db|--7----9----10-7---7----9----10-9---12-------10-------9------|
Ab|--7-77-7-77-7--7---8-88-8-88-8--8---10-10-10-10-10-10-10-----|
Eb|-------------------------------------------------------------|
   p.m ..   ..          ..   ..            .  .     .  .

(Continued)

Eb|-------------------------------------------------------|-----END-----|
Bb|-------------------------------------------------------|-------------|
Gb|-------------------------------------------------------|------2------|
Db|--12-------10-------10--6----7----9---10--9---7---6----|------2------|
Ab|--10-10-10-10-10-10-9---7-77-7-77-7-7-7-7-7-7-7-7-7----|------0------|
Eb|-------------------------------------------------------|-------------|
   p.m  .  .     .  .        ..   ..   .   .   .   .

RIFF 1: CHORUS RIFF x2

Eb|------------------------------------------------------------------------|
Bb|------10--------10------6---------6------10---------10-----8---6--------|
Gb|------9---------9-------5---------5------9----------9-----7---5-5-------|
Db|------7---------7-------3---------3------7----------7----5---3----------|
Ab|--00-----00-00------00-----00-00-----00------00-00----------------------|
Eb|------------------------------------------------------------------------|
  p.m..     .. ..      ..     .. ..     ..      .. ..

RIFF 2: VERSE

Eb|-----------------------------------------------|
Bb|-----------------------------------10----------|
Gb|----------------------------------9------------|
Db|-2222222222222---------22222222--7-----10------|
Ab|-0000000000000------3--00000000--------8-------|
Eb|----------------1-3----------------------------|
 p.m.............  . .    ........

(Continued)

Eb|-----------------------------------------------------|
Bb|------------------------------------10---------------|
Gb|-----------------------------------9-----------------|
Db|--2222222222222---------22222222--7-----10--12-------|
Ab|--0000000000000------3--00000000--------8---10-------|
Eb|-----------------1-3---------------------------------|
  p.m.............  . .    ........

RIFF 3: BRIDGE?

Eb------------------------------------------------------------------------|
Bb------------------------------------------------------------------------|
Gb------------2--5-4------------2--5-7------------2--5-2------------------|
Db--3-3--5-5--2--5-5--3-3--5-5--2--5-5--3-3--5-5--2--5-2--3-3--5-5--2-----|
Ab--3-3--5-5--0-------3-3--5-5--0-------3-3--5-5--0-------3-3--5-5--2-----|
Eb--1-1--3-3----------1-1--3-3----------1-1--3-3----------1-1--3-3--0-----|

(Continued)

Eb-------------------------------------|
Bb-------------------------------------|
Gb--99-99-9-99-99-9--------------------|
Db--99-99-9-99-99-9--------------------|
Ab--77-77-7-77-77-7-7-5-3-3h5p3-2------|
Eb-------------------------------------|

CHORUS: 2x

Eb|------------------------------------------------------------------------|
Bb|------10--------10------6---------6------10---------10-----8---6--------|
Gb|------9---------9-------5---------5------9----------9-----7---5-5-------|
Db|------7---------7-------3---------3------7----------7----5---3----------|
Ab|--00-----00-00------00-----00-00-----00------00-00----------------------|
Eb|------------------------------------------------------------------------|

END OF CHORUS

Eb---------------------------------------|
Bb---------------------------------------|
Gb----------------------------------2----|
Db--2-2-2-2-2-2-2-2-2-2-2-2-2-2-2-2-2----|
Ab--0-0-0-0-0-0-0-0-0-0-0-0-0-0-0-0-0----|
Eb---------------------------------------|

RIFF 4: ANOTHER BRIDGE?
   
Eb|---------------------------------------------------------------------------|
Bb|---------------------------------------------------------------------------|
Gb|--5----------------------------------8----8----8---------------------------|
Db|--5--6--8--5----5----5--6----6----6--8----8----8--8----8----8--6----6----6-|
Ab|--3--6--8--5----5----5--6----6----6--6-66-6-66-6--8----8----8--6----6----6-|
Eb|-----4--6--3-33-3-33-3--4-44-4-44-4---------------6-66-6-66-6--4-44-4-44-4-|
             p.m..   ..      ..   ..      ..   ..      ..   ..      ..   ..

(Continued) x2

Eb|----------------------------------------------|
Bb|----------------------------------------------|
Gb|----------------------------3-------5---3-----|
Db|--5-5-3-5--5-5-3-5-3-5--3-3-3-3-5---5---3-----|
Ab|--5-5-3-5--5-5-3-5-3-5--3-3-1-3-5---3---1-----|
Eb|--3-3-3-3--3-3-3-3-3-3--1-1---1-3-------------|

(Continued) x2

Eb----------------------------------------------|
Bb----------------------------------------------|
Gb--7-7---7--7-7---7---7--5-5-3-5-7-------------|
Db--7-7-5-7--7-7-5-7-5-7--5-5-3-5-7---7---5-----|
Ab--5-5-5-5--5-5-5-5-5-5--3-3---3-5---7---5-----|
Eb------------------------------------5---3-----|

FINAL RIFF BEFORE LAST CHORUS:

Eb|---------------------------------------|
Bb|---------------------------------------|
Gb|--99-99-9-99-99-9-99-99-9-99-99-9------|
Db|--99-99-9-99-99-9-99-99-9-99-99-9------|
Ab|--77-77-7-77-77-7-77-77-7-77-77-7------|
Eb|---------------------------------------|

FINISH THE SONG WITH THE INTRO RIFF

Thats it!!
            
Hard to play? Try these video lessons and learn fast. | Correct




comments powered by Disqus
↑ Back to top | Tablatures and chords are parodies/interpretations of the original songs. You may use it for private study, scholarship, research or language learning purposes only