» » »

Hammerfall, Fury Of The Wild Tabs (ver.1)

Artists:  A B C D E F G H I J K L M N O P Q R S T U V W X Y Z # 

Fury Of The Wild Tabs (ver.1)

Hammerfall Tabs
Rating:
0/5 (0 votes)
Fury Of The Wild lessons Tabs too difficult? Try these video lessons and learn fast
                
The Fury Of The Wild-HammerFall:


A very nice song.Nice sample of power metal.So:

Tab Key:

p=pull-off
b=bend
r=return bend
/=slide up
\=slide down
pm=palm mute
h=hammer-on
()=ghost note
X=dead note


                      Intro:

e-----------------------------------------------|
B-----------------------------------------------|
G-----------------------------------------------|
D-------------------9-7-6-------------------9-7-|
A-7-6-7-6-7-6-7--6-7------7-6-7-6-7-6-7--6-7----|
E-----------------------------------------------|

e--------------------------------|
B--------------------------------|
G--------------------------------|
D-------------------9-7-6--------|
A-7-6-7-6-7-6-7--6-7-------6-7-5-|
E--------------------------------|

Play intro 3 times

                       Verse:

                        1st part:
1st guitar:
e-----------------------------------------------|
B-----------------------------------------------|
G-----------------------------------------------|
D-------------------9-7-6-------------------9-7-|
A-7-6-7-6-7-6-7--6-7------7-6-7-6-7-6-7--6-7----|
E-----------------------------------------------|

e--------------------------------|
B--------------------------------|
G--------------------------------|
D-------------------9-7-6--------|
A-7-6-7-6-7-6-7--6-7-------6-7-5-|
E--------------------------------|

2nd guitar:
e------------------------------------------------|
B------------------------------------------------|
G-9-------9-------9-9----------------------------|
D-9-------9-------9-9-7-------7-------7-7--6-6-5-|
A-7-7-7-7-7-7-7-7-7-7-7-------7-------7-7--6-6-5-|
E---------------------5-5-5-5-5-5-5-5-5-5--4-4-3-|

                  2nd Part:
1st guitar:
e-----------------------------------------------|
B-----------------------------------------------|
G-----------------------------------------------|
D-------------------9-7-6-------------------9-7-|
A-7-6-7-6-7-6-7--6-7------7-6-7-6-7-6-7--6-7----|
E-----------------------------------------------|

e--------------------------------|
B--------------------------------|
G--------------------------------|
D-------------------9-7-6--------|
A-7-6-7-6-7-6-7--6-7-------6-7-5-|
E--------------------------------|

2nd guitar:
nothing

                 3rd part:
1st guitar:
e-----------------------------------------------|
B-----------------------------------------------|
G-----------------------------------------------|
D-------------------9-7-6-------------------9-7-|
A-7-6-7-6-7-6-7--6-7------7-6-7-6-7-6-7--6-7----|
E-----------------------------------------------|

e--------------------------------|
B--------------------------------|
G--------------------------------|
D-------------------9-7-6--------|
A-7-6-7-6-7-6-7--6-7-------6-7-5-|
E--------------------------------|

2nd guitar:
e------------------------------------------------|
B------------------------------------------------|
G-9-------9-------9-9----------------------------|
D-9-------9-------9-9-7-------7-------7-7--6-6-5-|
A-7-7-7-7-7-7-7-7-7-7-7-------7-------7-7--6-6-5-|
E---------------------5-5-5-5-5-5-5-5-5-5--4-4-3-|


                      Chorus:

e---------------------------------|
B---------------------------------|
G---9---7---5-----------9---7---5-|
D-9-9-7-7-5-5--9-7-5--9-9-7-7-5-5-|
A-9-7-7-5-5-3--7-5-3--9-7-7-5-5-3-|
E-7---5---3-----------7---5---3---|

                       After Chorus:

e-----------------------------------------------|
B-----------------------------------------------|
G-----------------------------------------------|
D-------------------9-7-6-------------------9-7-|
A-7-6-7-6-7-6-7--6-7------7-6-7-6-7-6-7--6-7----|
E-----------------------------------------------|

e--------------------------------|
B--------------------------------|
G--------------------------------|
D-------------------9-7-6--------|
A-7-6-7-6-7-6-7--6-7-------6-7-5-|
E--------------------------------|

                         Verse:

                        1st part:
1st guitar:
e-----------------------------------------------|
B-----------------------------------------------|
G-----------------------------------------------|
D-------------------9-7-6-------------------9-7-|
A-7-6-7-6-7-6-7--6-7------7-6-7-6-7-6-7--6-7----|
E-----------------------------------------------|

e--------------------------------|
B--------------------------------|
G--------------------------------|
D-------------------9-7-6--------|
A-7-6-7-6-7-6-7--6-7-------6-7-5-|
E--------------------------------|

2nd guitar:
e------------------------------------------------|
B------------------------------------------------|
G-9-------9-------9-9----------------------------|
D-9-------9-------9-9-7-------7-------7-7--6-6-5-|
A-7-7-7-7-7-7-7-7-7-7-7-------7-------7-7--6-6-5-|
E---------------------5-5-5-5-5-5-5-5-5-5--4-4-3-|

                         Chorus:

e---------------------------------|
B---------------------------------|
G---9---7---5-----------9---7---5-|
D-9-9-7-7-5-5--9-7-5--9-9-7-7-5-5-|
A-9-7-7-5-5-3--7-5-3--9-7-7-5-5-3-|
E-7---5---3-----------7---5---3---|

                             After Chorus:

e--------------------------------------------------|
B-----12b-11r-9-----12b-11r-9\-8-----12b-11r-9\8-7-|
G-9-10----------9-10-------------9-10--------------|
D--------------------------------------------------|
A--------------------------------------------------|
E--------------------------------------------------|x2

                       Solo (rythm):

e-------------------|
B-------------------|
G-7---------------7-|
D-7-------5-------7-|
A-5-5-5-5-5-5-5-5-5-|
E-------------------|repeat that till the enf of the solo:

                      Bridge:

e-----------------------------------------------------|
B-----------------------------------------------------|
G-9-------9-------9-------9---------------------------|
D-9-------9-------9-------9-9-------9-------9-------9-|
A-7-7-7-7-7-7-7-7-7-7-7-7-7-9-------9-------9-------9-|
E---------------------------7-7-7-7-7-7-7-7-7-7-7-7-7-|

e-------------|
B-------------|
G---------8-7-|
D-8-7-8-7-8-7-|
A-8-7-8-7-6-5-|
E-6-5-6-5-----|

e--------------------------------|
B--------------------------------|
G--------------------------------|
D-9-7---------9-7----------9-7-6-|
A-9-7---------9-7----------9-7-6-|
E-7-5---------7-5----------7-5-4-|

                    Chorus:

e---------------------------------|
B---------------------------------|
G---9---7---5-----------9---7---5-|
D-9-9-7-7-5-5--9-7-5--9-9-7-7-5-5-|
A-9-7-7-5-5-3--7-5-3--9-7-7-5-5-3-|
E-7---5---3-----------7---5---3---|

                  After Chorus:

e--------------------------------------------------|
B-----12b-11r-9-----12b-11r-9\-8-----12b-11r-9\8-7-|
G-9-10----------9-10-------------9-10--------------|
D--------------------------------------------------|
A--------------------------------------------------|
E--------------------------------------------------|x2

                          Outro:

e-----------------------------------------------|
B-----------------------------------------------|
G-----------------------------------------------|
D-------------------9-7-6-------------------9-7-|
A-7-6-7-6-7-6-7--6-7------7-6-7-6-7-6-7--6-7----|
E-----------------------------------------------|

e--------------------------------------------|
B--------------------------------------------|
G--------------------------------------------|
D-------------------9-7-6--------------------|
A-7-6-7-6-7-6-7--6-7-------6-7-5-7-5-7-5-7-5-|
E--------------------------------------------|

e-----------------------------------------------|
B-----------------------------------------------|
G-----------------------------------------------|
D-------------------9-7-6-------------------9-7-|
A-7-6-7-6-7-6-7--6-7------7-6-7-6-7-6-7--6-7----|
E-----------------------------------------------|

e------------------------------------------------|
B------------------------------------------------|
G------------------------------------------------|
D-------------------9-7-6------------------------|
A-7-6-7-6-7-6-7--6-7-------6-7-5-7-5-7-5-7-5-6-7-|
E------------------------------------------------|


                       The End

Excellent song.Dont forget to make comments and
rate my work.Thank you very much.....
            

comments powered by Disqus
↑ Back to top | Hammerfall Tabs for Fury Of The Wild. Lyrics for acoustic guitar and electric guitar. Tablatures and chords are parodies/interpretations of the original songs. You may use it for private study, scholarship, research or language learning purposes only