>
 >
A Legend Reborn

A Legend Reborn Bass Tabs

Hammerfall - A Legend Reborn chords, tabs, tablatures, lyrics

Guitar lessons | Add/correct | Request | Top 50 tabs Artists:  A B C D E F G H I J K L M N O P Q R S T U V W X Y Z 0-9

A Legend Reborn Bass Tabs – Hammerfall

CD, Sheet music, Poster

Do you like A Legend Reborn? Share with your friends now
Bass TabsTabs
A Legend Reborn                                 


Hammerfall
Bass (D# G# C# F#)



      W                   W                   W                 
F#||-------------------|-------------------|-------------------|
C#||-------------------|-------------------|-------------------|
G#||-------------------|-------------------|-------------------|
D#||-------------------|-------------------|-------------------|


  W                   W                   W                   W                 
-------------------|-------------------|-------------------|-------------------|
-------------------|-------------------|-------------------|-------------------|
-------------------|-------------------|-------------------|-------------------|
-------------------|-------------------|-------------------|-------------------|


  W                   W                   W                 
-------------------|-------------------|-------------------|
-------------------|-------------------|-------------------|
-------------------|--0----------------|--L----------------|
-------------------|-------------------|-------------------|


  Q.     Q.     Q       Q.     Q.     Q       W                 
---------------------|---------------------|-------------------|
---------------------|---------------------|-------------------|
--3------------------|---------0------L----|--0----------------|
---------0------L----|--1------------------|-------------------|


  W                   Q.     Q.     Q       E  E  E  Q.     Q     
-------------------|---------------------|-----------------------|
-------------------|---------------------|-----------------------|
--L----------------|--3------------------|-----------0------L----|
-------------------|---------0------L----|--1--1--3--------------|


  E  E  E  E  E  E  E  E     E  E  E  E  E  E  E  E     Q.     Q    E  E  E   
--------------------------|--------------------------|-----------------------|
--------------------------|--------------------------|-----------------------|
--0--0--0--0--0--0--0--0--|--0--0--0--0--0--0--0--0--|--3--------------------|
--------------------------|--------------------------|---------0----0--0--0--|


  E  E  E  Q    E  E  E     E  E  E  E  E  E  E  E     E  E  E  E  E  E  E  E   
-------------------------|--------------------------|--------------------------|
-------------------------|--------------------------|--------------------------|
-----------0----0--0--0--|--0--0--0--0--0--0--0--0--|--0--0--0--0--0--0--0--0--|
--1--1--1----------------|--------------------------|--------------------------|


  Q.     Q    E  E  E     E  E  E  Q    E  E  E     E  E  E  E  E  E  E  E   
-----------------------|-------------------------|--------------------------|
-----------------------|-------------------------|--------------------------|
--3--------------------|-----------0----0--0--0--|--0--0--0--0--0--0--0--0--|
---------0----0--0--0--|--1--1--3----------------|--------------------------|


  E  E  E  E  E  E  E  E     E  E  E  E  E  E  E  E     E  E  E  Q    E  E  E   
--------------------------|--------------------------|-------------------------|
--------------------------|--------------------------|-------------------------|
--0--0--0--0--0--0--0--0--|--------------------------|--3--3--3--3-------------|
--------------------------|--1--1--1--1--1--1--1--1--|----------------3--3--5--|


  E  E  E  E  E  E  E  E     E  E  E  E  E  E  E  E   
--------------------------|--------------------------|
--------------------------|--------------------------|
-----0--0--0--0--0--0--0--|--0--0--0--0--0--0--0--0--|
--5-----------------------|--------------------------|


  E  E  E  E  E  E  E  E     E  E  E  E  E  E  E  E   
--------------------------|--------------------------|
--------------------------|--------------------------|
--------------------------|--------------------------|
--1--1--1--1--1--1--1--1--|--1--1--1--1--1--1--1--5--|


  E  E  E  E  E  E  E  E     E  E  E  E  E  E  E  E   
--------------------------|--------------------------|
--------------------------|--------------------------|
--0--0--0--0--0--0--0--0--|--0--0--0--0--0--0--0--0--|
--------------------------|--------------------------|


  E  E  E  E  E  E  E  E     E  E  E  Q    E  E  E     E  E  E  E  E  E  E  E   
--------------------------|-------------------------|--------------------------|
--------------------------|-------------------------|--------------------------|
--------------------------|--3--3--3--3-------------|-----0--0--0--0--0--0--0--|
--1--1--1--1--1--1--1--1--|----------------3--3--5--|--5-----------------------|


  E  E  E  E  E  E  E  E     E  E  E  E  E  E  E  E   
--------------------------|--------------------------|
--------------------------|--------------------------|
--0--0--0--0--0--0--0--0--|--------------------------|
--------------------------|--1--1--1--1--1--1--1--1--|


  E  E  E  E  E  E  E  E     E  E  E  E  E  E  E  E   
--------------------------|--------------------------|
--------------------------|--------------------------|
-----------------------5--|--L--5--5--5--5--5--5--5--|
--1--1--1--1--1--1--1-----|--------------------------|


  E  E  E  E  E  E  E  E     E  E  E  E  E  E  E  E   
--------------------------|--------------------------|
--------------------------|--------------------------|
--5--5--5--5--5--5--5-----|--------------------------|
-----------------------5--|--L--5--5--5--5--5--5--3--|


  E  E  E  E  E  E  E  E     E  E  E  E  E  E  E  E   
--------------------------|--------------------------|
--------------------------|--------------------------|
--------------------------|--3--3--3--3--3--3--3--5--|
--L--3--3--3--3--3--3--3--|--------------------------|


  E  E  E  E  E  E  E  E     E  E  E  E  E  E  E  E     W                 
--------------------------|--------------------------|-------------------|
--------------------------|--------------------------|-------------------|
--L--5--5--5--5--5--5--7--|--L--7--7--7--7--7--7--7--|--L----------------|
--------------------------|--------------0--0--0--0--|--L----------------|


  E  E  E  E  E  E  E  E     E  E  E  E  E  E  E  E     Q.     Q    E  E  E   
--------------------------|--------------------------|-----------------------|
--------------------------|--------------------------|-----------------------|
--0--0--0--0--0--0--0--0--|--0--0--0--0--0--0--0--0--|--3--------------------|
--------------------------|--------------------------|---------0----0--0--0--|


  E  E  E  Q    E  E  E     E  E  E  E  E  E  E  E     E  E  E  E  E  E  E  E   
-------------------------|--------------------------|--------------------------|
-------------------------|--------------------------|--------------------------|
-----------0----0--0--0--|--0--0--0--0--0--0--0--0--|--0--0--0--0--0--0--0--0--|
--1--1--1----------------|--------------------------|--------------------------|


  Q.     Q    E  E  E     E  E  E  Q    E  E  E     E  E  E  E  E  E  E  E   
-----------------------|-------------------------|--------------------------|
-----------------------|-------------------------|--------------------------|
--3--------------------|-----------0----0--0--0--|--0--0--0--0--0--0--0--0--|
---------0----0--0--0--|--1--1--3----------------|--------------------------|


  E  E  E  E  E  E  E  E     E  E  E  E  E  E  E  E     E  E  E  Q    E  E  E   
--------------------------|--------------------------|-------------------------|
--------------------------|--------------------------|-------------------------|
--0--0--0--0--0--0--0--0--|--------------------------|--3--3--3--3-------------|
--------------------------|--1--1--1--1--1--1--1--1--|----------------3--3--5--|


  E  E  E  E  E  E  E  E     E  E  E  E  E  E  E  E   
--------------------------|--------------------------|
--------------------------|--------------------------|
-----0--0--0--0--0--0--0--|--0--0--0--0--0--0--0--0--|
--5-----------------------|--------------------------|


  E  E  E  E  E  E  E  E     E  E  E  E  E  E  E  E   
--------------------------|--------------------------|
--------------------------|--------------------------|
--------------------------|--------------------------|
--1--1--1--1--1--1--1--1--|--1--1--1--1--1--1--1--5--|


  E  E  E  E  E  E  E  E     E  E  E  E  E  E  E  E   
--------------------------|--------------------------|
--------------------------|--------------------------|
--0--0--0--0--0--0--0--0--|--0--0--0--0--0--0--0--0--|
--------------------------|--------------------------|


  E  E  E  E  E  E  E  E     E  E  E  Q    E  E  E     E  E  E  E  E  E  E  E   
--------------------------|-------------------------|--------------------------|
--------------------------|-------------------------|--------------------------|
--------------------------|--3--3--3--3-------------|-----0--0--0--0--0--0--0--|
--1--1--1--1--1--1--1--1--|----------------3--3--5--|--5-----------------------|


  E  E  E  E  E  E  E  E     E  E  E  E  E  E  E  E   
--------------------------|--------------------------|
--------------------------|--------------------------|
--0--0--0--0--0--0--0--0--|--------------------------|
--------------------------|--1--1--1--1--1--1--1--1--|


  E  E  E  E  E  E  E  E     E  E  E  E  E  E  E  E   
--------------------------|--------------------------|
--------------------------|--------------------------|
-----------------------5--|--L--5--5--5--5--5--5--5--|
--1--1--1--1--1--1--1-----|--------------------------|


  E  E  E  E  E  E  E  E     E  E  E  E  E  E  E  E   
--------------------------|--------------------------|
--------------------------|--------------------------|
--5--5--5--5--5--5--5-----|--------------------------|
-----------------------5--|--L--5--5--5--5--5--5--3--|


  E  E  E  E  E  E  E  E     E  E  E  E  E  E  E  E   
--------------------------|--------------------------|
--------------------------|--------------------------|
--------------------------|--3--3--3--3--3--3--3--5--|
--L--3--3--3--3--3--3--3--|--------------------------|


  E  E  E  E  E  E  E  E     E  E  E  E  E  E  E  E     W                 
--------------------------|--------------------------|-------------------|
--------------------------|--------------------------|-------------------|
--L--5--5--5--5--5--5--7--|--L--7--7--7--7--7--7--7--|--L----------------|
--------------------------|--------------0--0--0--0--|--L----------------|


  E  E  E  E  E  E  E  E     E  E  E  E  E  E  E  E     Q.     Q    E  E  E   
--------------------------|--------------------------|-----------------------|
--------------------------|--------------------------|-----------------------|
--0--0--0--0--0--0--0--0--|--0--0--0--0--0--0--0--0--|--3--------------------|
--------------------------|--------------------------|---------0----0--0--0--|


  E  E  E  Q    E  E  E     E  E  E  E  E  E  E  E     E  E  E  E  E  E  E  E   
-------------------------|--------------------------|--------------------------|
-------------------------|--------------------------|--------------------------|
-----------0----0--0--0--|--0--0--0--0--0--0--0--0--|--0--0--0--0--0--0--0--0--|
--1--1--1----------------|--------------------------|--------------------------|


  Q.     Q    E  E  E     E  E  E  Q    E  E  E     E  E  E  E  E  E  E  E   
-----------------------|-------------------------|--------------------------|
-----------------------|-------------------------|--------------------------|
--3--------------------|-----------0----0--0--0--|--------------------------|
---------0----0--0--0--|--1--1--3----------------|--3--3--3--3--3--3--3--3--|


  E  E  E  E  E  E  Q       E  E  E  E  E  E  E  E     E  E  E  E  E  E  Q     
-------------------------|--------------------------|-------------------------|
-------------------------|--------------------------|-------------------------|
--------------------3----|--------------------------|--------------------3----|
--3--3--3--3--3--3-------|--5--5--5--5--5--5--5--5--|--5--5--5--5--5--5-------|


  E  E  E  E  E  E  E  E     E  E  E  E  E  E  Q       E  E  E  E  E  E  E  E   
--------------------------|-------------------------|--------------------------|
--------------------------|--------------------2----|--3--3--3--3--3--3--3--5--|
--5--5--5--5--5--5--5--5--|--5--5--5--5--5--5-------|--------------------------|
--------------------------|-------------------------|--------------------------|


  E  E  E  E  E  E  E  E     E  E  E  E  E  E  E  E   
--------------------------|--------------------------|
--L--5--5--5--5--5--5--5--|--------------------------|
--------------------------|--------------------------|
--------------------------|--2--2--2--2--2--2--2--2--|


  E  E  E  E  E  E  E  E     E  E  E  E  E  E  E  E   
--------------------------|--------------------------|
--------------------------|--------------------------|
--------------------------|--0--0--0--0--0--0--0-----|
--2--2--2--2--2--2--2--4--|-----------------------0--|


  E  E  E  E  E  E  E  E     E  E  E  E  E  E  E  E   
--------------------------|--------------------------|
--------------------------|--------------------------|
--------------------------|--------------------------|
--L--0--0--0--0--0--0--0--|--2--2--2--2--2--2--2--2--|


  E  E  E  E  E  E  E  E     E  E  E  E  E  E  E  E   
--------------------------|--------------------------|
--------------------------|--------------------------|
--------------------------|--0--0--0--0--0--0--0-----|
--2--2--2--2--2--2--2--4--|-----------------------0--|


  E  E  E  E  E  E  E  E     E  E  E  E  E  E  E  E   
--------------------------|--------------------------|
--------------------------|--------------------------|
--------------------------|--------------------------|
--L--0--0--0--0--0--0--0--|--2--2--2--2--2--2--2--2--|


  E  E  E  E  E  E  E  E     E  E  E  E  E  E  E  E   
--------------------------|--------------------------|
--------------------------|--------------------------|
--------------------------|--0--0--0--0--0--0--0-----|
--2--2--2--2--2--2--2--4--|-----------------------0--|


  E  E  E  E  E  E  E  E     E  E  E  E  E  E  E  E   
--------------------------|--------------------------|
--------------------------|--------------------------|
--------------------------|--------------------------|
--L--0--0--0--0--0--0--0--|--2--2--2--2--2--2--2--2--|


  E  E  E  E  E  E  E  E     E  E  E  E  E  E  E  E   
--------------------------|--------------------------|
--------------------------|--------------------------|
--------------------------|--0--0--0--0--0--0--0-----|
--2--2--2--2--2--2--2--4--|-----------------------0--|


  E  E  E  E  E  E  E  E     W                   H.           Q     
--------------------------|-------------------|--------------------|
--------------------------|-------------------|--------------------|
--------------------------|-------------------|---------------3----|
--L--0--0--0--0--0--0--0--|--3----------------|--L-----------------|


  W                   H.           Q       W                 
-------------------|--------------------|-------------------|
-------------------|--------------------|-------------------|
-------------------|---------------3----|--5----------------|
--5----------------|--L-----------------|-------------------|


  H.           Q       E  E  E  E  E  E  E  E     E  E  E  E  E  E  E  E   
--------------------|--------------------------|--------------------------|
---------------2----|--3--3--3--3--3--3--3--3--|--2--2--2--2--2--2--2--2--|
--L-----------------|--------------------------|--------------------------|
--------------------|--------------------------|--------------------------|


  Q    Q    H           W                   Q.     Q.     Q     
---------------------|-------------------|---------------------|
---------------------|-------------------|---------------------|
--0------------------|-------------------|--3------------------|
---------------------|-------------------|---------0------L----|


  Q.     Q.     Q       Q    Q    H           W                 
---------------------|---------------------|-------------------|
---------------------|---------------------|-------------------|
---------0------L----|--0------------------|-------------------|
--1------------------|---------------------|-------------------|


  Q.     Q.     Q       E  E  E  Q.     Q       E  E  E  E  E  E  E  E   
---------------------|-----------------------|--------------------------|
---------------------|-----------------------|--------------------------|
--3------------------|-----------0------L----|--0--0--0--0--0--0--0--0--|
---------0------L----|--1--1--3--------------|--------------------------|


  E  E  E  E  E  E  E  E     Q.     Q    E  E  E     E  E  E  Q    E  E  E   
--------------------------|-----------------------|-------------------------|
--------------------------|-----------------------|-------------------------|
--0--0--0--0--0--0--0--0--|--3--------------------|-----------0----0--0--0--|
--------------------------|---------0----0--0--0--|--1--1--1----------------|


  E  E  E  E  E  E  E  E     E  E  E  E  E  E  E  E     Q.     Q    E  E  E   
--------------------------|--------------------------|-----------------------|
--------------------------|--------------------------|-----------------------|
--0--0--0--0--0--0--0--0--|--0--0--0--0--0--0--0--0--|--3--------------------|
--------------------------|--------------------------|---------0----0--0--0--|


  E  E  E  Q    E  E  E     E  E  E  E  E  E  E  E     E  E  E  E  E  E  E  E   
-------------------------|--------------------------|--------------------------|
-------------------------|--------------------------|--------------------------|
-----------0----0--0--0--|--0--0--0--0--0--0--0--0--|--0--0--0--0--0--0--0--0--|
--1--1--3----------------|--------------------------|--------------------------|


  Q.     Q    E  E  E     E  E  E  Q    E  E  E     E  E  E  E  E  E  E  E   
-----------------------|-------------------------|--------------------------|
-----------------------|-------------------------|--------------------------|
--3--------------------|-----------0----0--0--0--|--0--0--0--0--0--0--0--0--|
---------0----0--0--0--|--1--1--1----------------|--------------------------|


  E  E  E  E  E  E  E  E     Q.     Q    E  E  E     E  E  E  E  H         
--------------------------|-----------------------|-----------------------|
--------------------------|-----------------------|-----------------------|
--0--0--0--0--0--0--0--0--|--3--------------------|-----------0--L--------|
--------------------------|---------0----0--0--0--|--1--1--3--------------|


  W                   W                   W                   W                 
-------------------|-------------------|-------------------|-------------------|
-------------------|-------------------|-------------------|-------------------|
-------------------|-------------------|-------------------|-------------------|
-------------------|-------------------|-------------------|-------------------|


  W                   W                   W                   W                 
-------------------|-------------------|-------------------|-------------------|
-------------------|-------------------|-------------------|-------------------|
-------------------|-------------------|-------------------|-------------------|
-------------------|-------------------|-------------------|-------------------|


  W                   W                   W                  
-------------------|-------------------|-------------------||
-------------------|-------------------|-------------------||
-------------------|-------------------|-------------------||
-------------------|-------------------|-------------------||




Duration Legend
---------------
W - whole
H - half
Q - quarter
E - 8th
S - 16th
T - 32nd
X - 64th
. - note dotted
|-n-|  - n-tuplets


Tablature Legend
----------------
L - tied note
x - dead note
g - grace note
(n) - ghost note
> - accentuded note
NH - natural harmonic
AH - artificial harmonic
TH - tapped harmonic
SH - semi harmonic
PH - pitch harmonic
h - hammer on
p - pull off
b - bend
br - bendRelease
pb - preBend
pbr - preBendRelease
brb - bendReleaseBend
\n/ - tremolo bar dip
\n - tremolo bar dive
-/n - tremolo bar Release up
/n\ - tremolo bar inverted dip
/n - tremolo bar return
-\n - tremolo bar Release down
S - shift slide
s - legato slide
/ -  slide into from below or out of upwards
\ -  slide into from above or out of downwards
~ - vibrato
W - wide vibrato
tr - trill
TP - tremolo picking
T - tapping
S - slap
P - pop
< - fade in
^ - brush up
v - brush down





Comments


Popular Hammerfall tabs & chords
Angel Of Mercy Bass Tabs
Remember Yesterday Bass Tabs
Renegade Bass Tabs
Remember Yesterday Drum Tabs
Any Means Necessary 1 Tabs
Child Of The Damned Tabs
Last Man Standing Tabs
Last Man Standing 3 Tabs
Metal Heart Intro Tabs
Renegade 1 Tabs


Song lyrics



↑ Back to top | Tablatures and chords are parodies/interpretations of the original songs. You may use it for private study, scholarship, research or language learning purposes only
© 2014 AZChords.com Contact us | Privacy policy | DMCA | Add/correct tabs | Request tabs | Top 50 tabs