» » »

You Make My Dreams Tabs (ver.1)

Artists:  A B C D E F G H I J K L M N O P Q R S T U V W X Y Z # 

You Make My Dreams Tabs (ver.1)

Hall And Oates
Rating:
3/5 (3 votes)

Hard to play? Try these video lessons and learn fast.
                Hall & Oates
"You Make My Dreams"
Voices


This is in drop D for the sake of convenience.

The stroke pattern is a little weird, so listen
to the song to get the hang of it.


Intro
|--------------------------------------------------------------|
|--------------------------------------------------------------|
|--5--5-----5---5----3h5------5--5-----5---5----3h5------------|
|--3--3-----3---3----3-3------3--3-----3---3----3-3------------|
|--------------------------------------------------------------|
|--------3----3---3-----------------3----3---3-----------------|


|--------------------------------------------------------------|
|--------------------------------------------------------------|
|--5--5-----5---5----3h5------5--5-----5---5-------------------|
|--3--3-----3---3----3-3------3--3-----3---3-------------------|
|--------3----3---3-----------------3----3---3-----------------|
|--------3----3---3-----------------3----3---3-----------------|

Verse
|--------------------------------------------------------------|
|--------------------------------------------------------------|
|-----5-----5-----5-----5---------5-----5-----5-----5----------|
|-----3-----3-----3-----3---------3-----3-----3-----3----------|
|--3-----3-----3-----3---------3-----3-----3-----3-------------|
|--3-----3-----3-----3---------3-----3-----3-----3-------------|


|--------------------------------------------------------------|
|--------------------------------------------------------------|
|-----5-----5-----5-----5-----5-----5-----5-----5--------------|
|-----3-----3-----3-----3-----3-----3-----3-----3--------------|
|--3-----3-----------0-----1-----1-----1-----1-----------------|
|--3-----3-----5-----------------------------------------------|

Chorus
|--------------------------------------------------------------------------|
|--------------------------------------------------------------------------|
|-----5-----5-----5-----5---------5-----5-----5-----5----------------------|
|-----3-----3-----3-----3---------3-----3-----3-----3----------------------|
|------------------------------1-----1-----1-----1-------------------------|
|--5-----5-----5-----5-----------------------------------------------------|


|--------------------------------------------------------------------------|
|--------------------------------------------------------------------------|
|-----5-----5-----5-----5---------5-----5-----5-----5----------------------|
|-----3-----3-----3-----3---------3-----3-----3-----3----------------------|
|--3-----3-----3-----3---------3-----3-----3-----3-------------------------|
|--3-----3-----3-----3---------3-----3-----3-----3-------------------------|


|--------------------------------------------------------------------------|
|--------------------------------------------------------------------------|
|-----5-----5-----5-----5-----5-----5-----5-----5-----5-----5-----5-----5--|
|-----3-----3-----3-----3-----3-----3-----3-----3-----3-----3-----3-----3--|
|--3-----3-----------0-----1-----1-----1-----1-----3-----3-----3-----3-----|
|--3-----3-----5-----------------------------------------------------------|


|--------------------------------------------------------------------------|
|--------------------------------------------------------------------------|
|-----5-----5-----5-----5---------5-----5--3-------------------------------|
|-----3-----3-----3-----3---------3-----3--1-------------------------------|
|--3-----3-----3-----3---------3-----3--------3----------------------------|
|--3-----3-----3-----3---------3-----3--------3----------------------------|

Bridge
|------------------------------------------------|
|------------------------------------------------|
|---------------------5-----5------5-----5-------|
|--8-8----8-8---------3-----3------3-----3-------|
|--6-6----5-5------------------------------------|
|------------------3-----3-----3------3----------|


|------------------------------------------------|
|------------------------------------------------|
|---------------------5-----5------5-----5-------|
|--8-8----8-8---------3-----3------3-----3-------|
|--6-6----5-5------------------------------------|
|------------------3-----3-----3------3----------|


|------------------------------------------------|
|------------------------------------------------|
|---------7-7\-----5~----------5~--------5-------|
|--8-8\---8-8\-----3~----------3~--------5-------|
|--6-6\---5-5\-----x~----------1~--------3-------|
|------------------5~----------------------------|
            
Hard to play? Try these video lessons and learn fast. | Correct




comments powered by Disqus
↑ Back to top | Tablatures and chords are parodies/interpretations of the original songs. You may use it for private study, scholarship, research or language learning purposes only