» » »

Hall And Oates, Maneater Chords (ver.1)

Artists:  A B C D E F G H I J K L M N O P Q R S T U V W X Y Z # 

Maneater Chords (ver.1)

Hall And Oates Tabs
 Rating:
4/5 (10 votes)
Maneater lessons Tabs too difficult? Try these video lessons and learn fast
                Hall & Oates
Tuning: Standard

Intro:
Bm  A  G  A (x4)

Verse:
D
She'll only come out at night
A
The lean and hungry type
C                                     B
Nothing is new, I've seen her here before
Em
Watching and waiting
             A                                       Bm
Ooh, she's sittin' with you but her eyes are on the door


Verse 2: (Same as Verse 1)
D  A  C  B  Em  A  Bm

Chorus:
Bm                       A
(Oh-oh, here she comes) Watch out boy she'll chew you up
G                                 F#
(Oh-oh, here she comes) She's a maneater
Bm                       A
(Oh-oh, here she comes) Watch out boy she'll chew you up
Em                              G       A
(Oh-oh, here she comes) She's a maneater


Verse 3: (Same as Verse 1)
D  A  C  B  Em  A  Bm


[Chorus]


Sax Solo:
|----------------------------------------------------7-----7---|
|-----------2------2--3------2-3-5-----/7-10----7h10---10~-----|
|-2s4~----4------4---------4-----------------------------------|
|--------------------------------------------------------------|
|--------------------------------------------------------------|
|--------------------------------------------------------------|

|------7-9b10=r--7---9b10=r-------7------------|
|-7h10----------------------7--10---7----7-----|
|-------------------------------------9~-------|
|----------------------------------------------|
|----------------------------------------------|
|----------------------------------------------|

|------7-7s10-7s10-7s10-7-10\-----------------------------------|
|-7-10---------------------------10s12~--10-12-10-----10~\------|
|--------------------------------------------------11-----------|
|---------------------------------------------------------------|
|---------------------------------------------------------------|
|---------------------------------------------------------------|

|---------9-10----9--10----9-10-10s12------10-----------------|
|-10s12\-------12-------12--------------------12b14rp10-12----|
|-------------------------------------------------------------|
|-------------------------------------------------------------|
|-------------------------------------------------------------|
|-------------------------------------------------------------|

|------7-7~---9b=10rp7--------7-7~------7-------7-----10p9----|
|-7h10-------------------7h10------7-10----7-10---------------|
|-------------------------------------------------------------|
|-------------------------------------------------------------|
|-------------------------------------------------------------|
|-------------------------------------------------------------|

[Chorus] (Repeat)

Chords:
Bm:    x24432
A:     x02220
G:     320033
D:     xx0232
C:     x32010
B:     x2444x
Em:    022000
F#:    244322
            
Submit corrections

comments powered by Disqus
↑ Back to top | Hall And Oates Chords for Maneater. Lyrics for acoustic guitar and electric guitar. Tablatures and chords are parodies/interpretations of the original songs. You may use it for private study, scholarship, research or language learning purposes only