» » »

You Make My Dreams Bass tabs (ver.1)

Artists:  A B C D E F G H I J K L M N O P Q R S T U V W X Y Z # 

You Make My Dreams Bass tabs (ver.1)

Hall And Oates
Rating:
4/5 (6 votes)

Hard to play? Try these video lessons and learn fast.
                “You Make My Dreams Come True” by Hall & Oates

This is a very easy song to play! Just listen to the song to get a better feel for the rhythm.


Intro

4 Bars Rest(Bass Comes In w/ Drums)

G |-----------------------------------|
D |------------------------3----3--3--|
A |-----------------------------------|
E |-1----1----1-1--1----1-----1----1--|


Verse

G |-------------------------|
D |---3----3----3------3----|
A |-------------------------| X2
E |-1----1----1---1--1------|


G |-------------------------------------------|
D |---3----3----5---7---8----8----8------8----|
A |-------------------------------------------|
E |-1----1----3---5---6----6----6---6--6------|


Chorus

G |-------------------------5----5---5------5---|
D |---5----5----5------5------------------------|
A |-----------------------3----3----3--3--3-----|
E |-3----3----3---3--3--------------------------|

G |-------------------------|
D |---3----3----3------3----|
A |-------------------------|
E |-1----1----1---1--1------|

G |-------------------------------------------|
D |---3----3----5---7---8----8----8------8----|
A |-------------------------------------------|
E |-1----1----3---5---6----6----6---6--6------|

G |------------------------------------------------------|
D |---10---10---10-----10-----3----3----3------3-3-------|
A |------------------------------------------------------|
E |-8----8----8---8--8------1----1----1---1—1----1---6-1-|

Middle 8 – (“Well Listen to this”)

G |---------------------------------------|
D |-------------------3----3---3---3------|
A |-6-6-----------------------------------| X3
E |--------6-6-----1----1---1--1--1-------|

G |---------------------------------------|
D |--------------------3----3---3-----3---|
A |-6-6s1---------------------------------|
E |--------6-6s1-----1----1---1--1--1-----|

G |-------------------------------|
D |------8----8---8-----8---------|
A |-------------------------------|
E |----6----6---6--6--6------6s1--|

Structure:

Intro
Verse
Verse
Chorus
Verse
Verse
Chorus
Middle 8
Chorus
Chorus
Chorus
Chorus*

*The last 2 choruses start to fade out


NOTE: This song is very easy to fill over, so get creative. :)

This was my first tab, so if there are mistakes bear with me, I’ll get them fixed. Email 
if you have any troubles or spot an error. Thank-you so much, I hope this works for you!
            
Hard to play? Try these video lessons and learn fast. | Correct




comments powered by Disqus
↑ Back to top | Tablatures and chords are parodies/interpretations of the original songs. You may use it for private study, scholarship, research or language learning purposes only