>
 >
Our Last Dance 1

Our Last Dance 1 Guitar Tabs

Halifax - Our Last Dance 1 chords, tabs, tablatures, lyrics

Guitar lessons | Add/correct | Request | Top 50 tabs Artists:  A B C D E F G H I J K L M N O P Q R S T U V W X Y Z 0-9

Our Last Dance 1 Guitar Tabs – Halifax

CD, Sheet music, Poster

Do you like Our Last Dance 1? Share with your friends now
Bass TabsTabsTabs v2
-------------------------------------------------------------------------------        
Our Last Dance - Halifax
-------------------------------------------------------------------------------


Guitar 1 tuning: Standard
Guitar 2 tuning: Standard

Intro
-----
Guitar 1
     Clean
     S S E  H        Q     
e||-----------------------|
B||-----------------------|
G||-----------------------|
D||-----------------------|
A||----2-L--L--------2----|
E||--0-L-L--L-------------|

   H.           Q       H.           Q     
|--------------------|--------------------|
|--------------------|--------------------|
|--------------------|--------------------|
|--------------------|--------------------|
|---------------2----|---------------2----|
|--0-----------------|--0-----------------|

   Distortion
   <                     
   H.           S S S S  
|-----------------------||
|-----------------------||
|---------------4---4---||
|--2------------4---4---||
|--2------------2---2---||
|--0--------------------||

Guitar 2
      Clean
      S  S  E  E  S E  S S S S 
E||----------------------------|
B||----------------------------|
G||--------------------------8h|
D||---------9--8--L-9--L-8-9---|
A||-----(2)--------------------|
E||--(0)-----------------------|

   E  E  E  S E  S S S  E  E   
|-----------------------------|
|-----------------------------|
|----------------------11--9--|
|--L--9--8--L-9--L-8-9--------|
|-----------------------------|
|-----------------------------|

   E  E  E  S E  S S S S  S S S  
|-------------------------------|
|-------------------------------|
|--8-------------------8h-9-----|
|-----9--8--L-9--L-8-9------9-8-|
|-------------------------------|
|-------------------------------|

   E  E  H        Q     
|----------------------||
|----------------------||
|----------------------||
|--L--9----------------||
|--------9--------L----||
|----------------------||

Breakdown
---------
Guitar 1
   S S S E  S S E  S S S S S S S  
|--------------------------------|
|--------------------------------|
|--4-4-4-4--4-4-4--4-4-4-4-4-4-4-|
|--4-4-4-4--4-4-4--4-4-4-4-4-4-4-|
|--2-2-2-1--1-1-2--2-2-2-2-2-2-2-|
|--------------------------------|

   S S S E  S S E  S S S S S S S  
|--------------------------------||
|--------------------------------||
|--4-4-4-4--4-4------------------||
|--4-4-4-4--4-4-4--4-4-4-4-4-4-4-||
|--2-2-2-1--1-1-4--4-4-4-4-4-4-4-||
|---------------2--2-2-2-2-2-2-2-||

Guitar 2
   Distortion
   S S S E  S S E  S S S S S S S  
|--------------------------------|
|--------------------------------|
|--4-4-4-4--4-4-4--4-4-4-4-4-4-4-|
|--x-x-x-x--x-x-x--x-x-x-x-x-x-x-|
|--2-2-2-2--2-2-2--2-2-2-2-2-2-2-|
|--------------------------------|

   S S S E  S S E  S S S S S S S  
|--------------------------------||
|--------------------------------||
|--4-4-4-4--4-4-6--6-6-6-6-6-6-6-||
|--x-x-x-x--x-x-x--x-x-x-x-x-x-x-||
|--2-2-2-2--2-2-4--4-4-4-4-4-4-4-||
|--------------------------------||

Verse Pt.1
----------
Guitar 1
   PM PM          PM PM
   S  S  S S Q    S  S  S S Q     
|--------------------------------|
|--------------------------------|
|--------------------------------|
|--6--6-----------2--2-----------|
|--6--6-----------2--2-----------|
|--4--4-----------0--0-----------|

   PM PM          PM PM           
   S  S  S S Q    S  S  S S Q     
|--------------------------------||
|--------------------------------||
|--4--4--------------------------||
|--4--4-----------4--4-----------||
|--2--2-----------4--4-----------||
|-----------------2--2-----------||

Guitar 2   
   Clean W/ Flanger
   S S S S Q    S S S S Q     
|----------------------------|
|----------------------------|
|------4-L-L----L-L-4-L-L----|
|----4-L-L-L----L-4-L-L-L----|
|--2-L-L-L-L----2-L-L-L-L----|
|----------------------------|

   S S S S Q    S S S S Q     
|----------------------------||
|----------------------------||
|------4-L-L----L-L-4-L-L----||
|----4-L-L-L----L-4-L-L-L----||
|--2-L-L-L-L----2-L-L-L-L----||
|----------------------------||

Verse Pt.2
Guitar 1
   PM PM          PM PM      
   S  S  S S Q    S  S  S S Q     
|--------------------------------|
|--------------------------------|
|--------------------------------|
|--6--6-----------2--2-----------|
|--6--6-----------2--2-----------|
|--4--4-----------0--0-----------|

   PM PM          PM PM       
   S  S  S S Q    S  S  S S S S S S  
|-----------------------------------||
|-----------------------------------||
|--4--4-----------------------------||
|--4--4-----------4--4------4---4---||
|--2--2-----------4--4------4---4---||
|-----------------2--2------2---2---||

Guitar 2   Clean W/ Flanger
   S S S S Q    S S S S Q     
|----------------------------|
|----------------------------|
|------4-L-L----L-L-4-L-L----|
|----4-L-L-L----L-4-L-L-L----|
|--2-L-L-L-L----2-L-L-L-L----|
|----------------------------|

   S S S S Q    S S S S Q     
|----------------------------||
|----------------------------||
|------4-L-L----L-L-4-L-L----||
|----4-L-L-L----L-4-L-L-L----||
|--2-L-L-L-L----2-L-L-L-L----||
|----------------------------||

Chorus
------
Guitar 1
   S S S S S S S S S S S S S S S S  
|----------------------------------|
|----------------------------------|
|--4-4---4-4-4---4-4-4---4-4-4---4-|
|--4-4---4-4-4---4-4-4---4-4-4---4-|
|--2-2---2-2-2---2-2-2---2-2-2---2-|
|----------------------------------|

   S S S S S S S S S S S S S S S S  
|----------------------------------|
|----------------------------------|
|----------------------------------|
|--4-4---4-4-4---4-4-4---4-4-4---4-|
|--4-4---4-4-4---4-4-4---4-4-4---4-|
|--2-2---2-2-2---2-2-2---2-2-2---2-|

   S S S S S S S S S S S S S S S S  
|----------------------------------|
|----------------------------------|
|----------------------------------|
|--6-6-6-6-6-6-6-6-4-4-4-4-4-4-4-4-|
|--6-6-6-6-6-6-6-6-4-4-4-4-4-4-4-4-|
|--4-4-4-4-4-4-4-4-2-2-2-2-2-2-2-2-|

   PM PM PM        PM PM PM       
   S  S  S  E.  E  S  S  S  E.  E   
|----------------------------------||
|----------------------------------||
|-----------9---9-----------9---9--||
|--2--2--2--x---x--2--2--2--x---x--||
|--2--2--2--7---7--2--2--2--7---7--||
|--0--0--0---------0--0--0---------||

Guitar 2
   Distortion
   S S S S S S S S S S S S S S S S  
|----------------------------------|
|----------------------------------|
|--4-4-4-4-4-4-4-4-4-4-4-4-4-4-4-4-|
|--x-x-x-x-x-x-x-x-x-x-x-x-x-x-x-x-|
|--2-2-2-2-2-2-2-2-2-2-2-2-2-2-2-2-|
|----------------------------------|

   S S S S S S S S S S S S S S S S  
|----------------------------------|
|----------------------------------|
|--4-4-4-4-4-4-4-4-4-4-4-4-6-6-6-6-|
|--x-x-x-x-x-x-x-x-x-x-x-x-x-x-x-x-|
|--2-2-2-2-2-2-2-2-2-2-2-2-4-4-4-4-|
|----------------------------------|

   S S S S S S S S S S S S S S S S  
|----------------------------------|
|----------------------------------|
|--4-4-4-4-4-4-4-4-3-3-4-4-6-6-8-8-|
|--x-x-x-x-x-x-x-x-x-x-x-x-x-x-x-x-|
|--2-2-2-2-2-2-2-2-1-1-2-2-4-4-6-6-|
|----------------------------------|

   S S S E.  E  S S S E.  E   
|----------------------------||
|----------------------------||
|--------9---9--------9---9--||
|--------x---x--------x---x--||
|--------7---7--------7---7--||
|----------------------------||

Interlude
---------
Guitar 1
   W                   W                 
|-------------------|-------------------|
|-------------------|-------------------|
|--4----------------|-------------------|
|--4----------------|--4----------------|
|--2----------------|--4----------------|
|-------------------|--2----------------|

   PM PM             PM PM        
   S  S  S S S S S S S  S  S S E  E   
|------------------------------------|
|------------------------------------|
|------------------------------4--4--|
|--2--2--------------2--2------4--4--|
|--2--2--------------2--2------2--2--|
|--0--0--------------0--0------------|

   PM PM             PM PM            
   S  S  S S S S S S S  S  S S E  E   
|------------------------------------||
|------------------------------------||
|------------------------------4--4--||
|--2--2--------------2--2------4--4--||
|--2--2--------------2--2------2--2--||
|--0--0--------------0--0------------||

Guitar 2   
   Distortion
   W                   W                 
|-------------------|-------------------|
|-------------------|-------------------|
|-------------------|-------------------|
|-------------------|-------------------|
|-------------------|-------------------|
|-------------------|-------------------|

   H.           E  E     H.           E  E  
|---------------------|---------------------||
|---------------------|---------------------||
|---------------9--9--|---------------9--9--||
|---------------x--x--|---------------x--x--||
|---------------7--7--|---------------7--7--||
|---------------------|---------------------||

Outro Chorus
------------
Guitar 1
   S S S S S S S S S S S S S S S S  
|----------------------------------|
|----------------------------------|
|--4-4-4-4-4-4-4-4-4-4-4-4-4-4-4-4-|
|--4-4-4-4-4-4-4-4-4-4-4-4-4-4-4-4-|
|--2-2-2-2-2-2-2-2-2-2-2-2-2-2-2-2-|
|----------------------------------|

   S S S S S S S S S S S S S S S S  
|----------------------------------|
|----------------------------------|
|----------------------------------|
|--4-4-4-4-4-4-4-4-4-4-4-4-4-4-4-4-|
|--4-4-4-4-4-4-4-4-4-4-4-4-4-4-4-4-|
|--2-2-2-2-2-2-2-2-2-2-2-2-2-2-2-2-|

   S S S S S S S S S S S S S S S S  
|----------------------------------|
|----------------------------------|
|----------------------------------|
|--6-6-6-6-6-6-6-6-4-4-4-4-4-4-4-4-|
|--6-6-6-6-6-6-6-6-4-4-4-4-4-4-4-4-|
|--4-4-4-4-4-4-4-4-2-2-2-2-2-2-2-2-|

   S S S S S S S S S S S S S S S S  
|----------------------------------||
|----------------------------------||
|----------------------------------||
|--2-2-2-2-2-2-2-2-2-2-2-2-2-2-2-2-||
|--2-2-2-2-2-2-2-2-2-2-2-2-2-2-2-2-||
|--0-0-0-0-0-0-0-0-0-0-0-0-0-0-0-0-||

Guitar 2   
   Distortion
   S S S S S S S S S S S S S S S S  
|----------------------------------|
|----------------------------------|
|--4-4-4-4-4-4-4-4-4-4-4-4-4-4-4-4-|
|--x-x-x-x-x-x-x-x-x-x-x-x-x-x-x-x-|
|--2-2-2-2-2-2-2-2-2-2-2-2-2-2-2-2-|
|----------------------------------|

   S S S S S S S S S S S S S S S S  
|----------------------------------|
|----------------------------------|
|--4-4-4-4-4-4-4-4-4-4-4-4-6-6-6-6-|
|--x-x-x-x-x-x-x-x-x-x-x-x-x-x-x-x-|
|--2-2-2-2-2-2-2-2-2-2-2-2-4-4-4-4-|
|----------------------------------|

    S S S S S S S S S S S S S S S S  
|----------------------------------|
|----------------------------------|
|--4-4-4-4-4-4-4-4-3-3-4-4-6-6-8-8-|
|--x-x-x-x-x-x-x-x-x-x-x-x-x-x-x-x-|
|--2-2-2-2-2-2-2-2-1-1-2-2-4-4-6-6-|
|----------------------------------|

   S S S S S S S S S S S S S S S S  
|----------------------------------||
|----------------------------------||
|--9-9-9-9-9-9-9-9-9-9-9-9-9-9-9-9-||
|--x-x-x-x-x-x-x-x-x-x-x-x-x-x-x-x-||
|--7-7-7-7-7-7-7-7-7-7-7-7-7-7-7-7-||
|----------------------------------||

Ending
------
Guitar 1
   S S H        Q    E    
|-----------------------||
|-----------------------||
|--4-4------------------||
|--4-4------------------||
|--2-2------------------||
|-----------------------||

Guitar 2
   S S H        Q    E    
|-----------------------||
|-----------------------||
|--4-4------------------||
|--4-4------------------||
|--2-2------------------||
|-----------------------||

Song Order
----------
Intro x 1
Breakdown x 2
Verse Pt.1 x 1
Verse Pt.2 x 1
Breakdown x 2
Chorus x 2
Verse Pt.1 x 3
Verse Pt.2 x 1
Breakdown x 2
Chorus x 2
Interlude x 2
Chorus x 2
Outro Chorus x 2
Ending x 1

Duration Legend
---------------
W - whole
H - half
Q - quarter
E - 8th
S - 16th
T - 32nd
X - 64th
. - note dotted
|-n-|  - n-tuplets


Tablature Legend
----------------
L - tied note
x - dead note
g - grace note
(n) - ghost note
> - accentuded note
NH - natural harmonic
AH - artificial harmonic
TH - tapped harmonic
SH - semi harmonic
PH - pitch harmonic
h - hammer on
p - pull off
b - bend
br - bendRelease
pb - preBend
pbr - preBendRelease
brb - bendReleaseBend
\n/ - tremolo bar dip
\n - tremolo bar dive
-/n - tremolo bar Release up
/n\ - tremolo bar inverted dip
/n - tremolo bar return
-\n - tremolo bar Release down
S - shift slide
s - legato slide
/ -  slide into from below or out of upwards
\ -  slide into from above or out of downwards
~ - vibrato
W - wide vibrato
tr - trill
TP - tremolo picking
T - tapping
S - slap
P - pop
< - fade in
^ - brush up
v - brush down





Comments


Popular Halifax tabs & chords
Sydney Chords
Finished In A Day Tabs
I Hate Your Eyes Tabs
Our Revolution Tabs
Our Revolution 1 Tabs
Our Revolution 2 Tabs
Our Revolution 4 Tabs
Sydney Tabs
Ten Fingers Isn't Quite Enough Tabs
Broken Glass Syndrome Intro Ukulele


Song lyrics



↑ Back to top | Tablatures and chords are parodies/interpretations of the original songs. You may use it for private study, scholarship, research or language learning purposes only
© 2014 AZChords.com Contact us | Privacy policy | DMCA | Add/correct tabs | Request tabs | Top 50 tabs