» » »

Halifax, Our Last Dance Bass tabs (ver.1)

Artists:  A B C D E F G H I J K L M N O P Q R S T U V W X Y Z # 

Our Last Dance Bass tabs (ver.1)

Halifax Tabs
 Rating:
4/5 (4 votes)
Our Last Dance lessons Tabs too difficult? Try these video lessons and learn fast
1
                -------------------------------------------------------------------------------
-------------------------------------------------------------------------------


Tuning: Standard

Intro
-----
     W                        W                 
G||------------------------|-------------------|
D||------------------------|-------------------|
A||------------------------|-------------------|
E||------------------------|-------------------|

  W                   H.           S S S S  
-------------------|-----------------------||
-------------------|-----------------------||
-------------------|---------------2---2---||
-------------------|-----------------------||


Breakdown
---------
   S S S E  S S E  S S S S S S S  
|--------------------------------|
|--------------------------------|
|--2-2-2-1--1-1-2--2-2-2-2-2-2-2-|
|--------------------------------|


   S S S E  S S E  S S S S S S S  
|--------------------------------||
|--------------------------------||
|--2-2-2-1--1-1------------------||
|---------------2--2-2-2-2-2-2-2-||


Verse Pt.1
----------
   S S S S S S S S S S S S S S S S  
|----------------------------------|
|----------------------------------|
|----------------------------------|
|--4-4-------------0-0-------------|


   S S S S S S S S S S S S S S S S  
|----------------------------------||
|----------------------------------||
|--2-2-----------------------------||
|------------------2-2-------------||


Verse Pt.2
----------
   S S S S S S S S S S S S S S S S  
|----------------------------------|
|----------------------------------|
|----------------------------------|
|--4-4-------------0-0-------------|


   S S S S S S S S S S S S S S S S  
|----------------------------------||
|----------------------------------||
|--2-2-----------------------------||
|------------------2-2-----2---2---||


Chorus
------
   S S S S S S S S S S S S S S S S  
|----------------------------------|
|----------------------------------|
|--2-2---2-2-2---2-2-2---2-2-2---2-|
|----------------------------------|


   S S S S S S S S S S S S S S S S  
|----------------------------------|
|----------------------------------|
|----------------------------------|
|--2-2---2-2-2---2-2-2---2-2-2---2-|


   S S S S S S S S S S S S S S S S  
|----------------------------------|
|----------------------------------|
|----------------------------------|
|--4-4-4-4-4-4-4-4-2-2-2-2-2-2-2-2-|


   S S S S S S S S S S S S S S S S  
|----------------------------------||
|----------------------------------||
|----------------------------------||
|--0-0-0-----------0-0-0-----------||


Interlude
---------
   W                   W                 
|-------------------|-------------------|
|-------------------|-------------------|
|--2----------------|-------------------|
|-------------------|--2----------------|


   S S S S S S S S S S S S S S S S  
|----------------------------------|
|----------------------------------|
|----------------------------------|
|--0-0-------------0-0-------------|


   S S S S S S S S S S S S S S S S  
|----------------------------------||
|----------------------------------||
|----------------------------------||
|--0-0-------------0-0-------------||


Outro Chorus
------------
   S S S S S S S S S S S S S S S S  
|----------------------------------|
|----------------------------------|
|--2-2-2-2-2-2-2-2-2-2-2-2-2-2-2-2-|
|----------------------------------|


   S S S S S S S S S S S S S S S S  
|----------------------------------|
|----------------------------------|
|----------------------------------|
|--2-2-2-2-2-2-2-2-2-2-2-2-2-2-2-2-|


   S S S S S S S S S S S S S S S S  
|----------------------------------|
|----------------------------------|
|----------------------------------|
|--4-4-4-4-4-4-4-4-2-2-2-2-2-2-2-2-|


   S S S S S S S S S S S S S S S S  
|----------------------------------||
|----------------------------------||
|----------------------------------||
|--0-0-0-0-0-0-0-0-0-0-0-0-0-0-0-0-||


Ending
------
   S S H        Q    E    
|-----------------------||
|-----------------------||
|--2-2------------------||
|-----------------------||


Song Order
----------
Intro x 1
Breakdown x 2
Verse Pt.1 x 1
Verse Pt.2 x 1
Breakdown x 2
Chorus x 2
Verse Pt.1 x 3
Verse Pt.2 x 1
Breakdown x 2
Chorus x 2
Interlude x 2
Chorus x 2
Outro Chorus x 2
Ending x 1

Duration Legend
---------------
W - whole
H - half
Q - quarter
E - 8th
S - 16th
T - 32nd
X - 64th
. - note dotted
|-n-|  - n-tuplets
            
Submit corrections

comments powered by Disqus
↑ Back to top | Halifax Bass for Our Last Dance. Lyrics for acoustic guitar and electric guitar. 1 Tablatures and chords are parodies/interpretations of the original songs. You may use it for private study, scholarship, research or language learning purposes only