» » »

Halford, Ressurrection Tabs (ver.2)

Artists:  A B C D E F G H I J K L M N O P Q R S T U V W X Y Z # 

Ressurrection Tabs (ver.2)

Halford Tabs
 Rating:
4/5 (4 votes)
Ressurrection lessons Tabs too difficult? Try these video lessons and learn fast
1
                Halford - Resurrection
Resurrection (2000)
R. Halford/P. Lachman/R. Baxter/Roy Z

Tuning: D-A-D-G-B-E


Main riff:

E |----------|--------------|
B |----------|--------------|
G |----------|--------------|
D |-5/7---7--|--------------|
A |-3/5---5--|-5-6-5--0-0-3-|
D |-----0----|-5-6-5--0-0-3-|

E |----------|--------------|
B |----------|--------------|
G |----------|--------------|
D |-5/7---7--|--------------|
A |-3/5---5--|-5-6-5--0-0-3-|
D |-----0----|-5-6-5--0-0-3-|

E |----------|--------------|
B |----------|--------------|
G |----------|--------------|
D |-5/7---7--|--------------|
A |-3/5---5--|-5-6-5--0-0-3-|
D |-----0----|-5-6-5--0-0-3-|

E |----------|--------------|
B |----------|--------------|
G |----------|--------------|
D |-5/7---7--|--------------|
A |-3/5---5--|-5-6-5--0-0-3-|
D |-----0----|-5-6-5--0-0-3-|


Verse:

I'm digging deep inside my soul...
E |-------------------------------------------------------------|
B |-------------------------------------------------------------|
G |-------------------------------------------------------------|
D |---------------------------------------------------------5/7-|
A |---------------------------------3-6-3-5-3-6-3-5---------3/5-|
D |-0-0-0-0-0-0-0-0-0-0-0-0-0-0-0-0-----------------0-0-0-0-----|

E |-------------------------------------------------------------|
B |-------------------------------------------------------------|
G |-------------------------------------------------------------|
D |---------------------------------------------------------5/7-|
A |---------------------------------3-6-3-5-3-6-3-5---------3/5-|
D |-0-0-0-0-0-0-0-0-0-0-0-0-0-0-0-0-----------------0-0-0-0-----|

E |-------------------------------------------------------------|
B |-------------------------------------------------------------|
G |-------------------------------------------------------------|
D |---------------------------------------------------------5/7-|
A |---------------------------------3-6-3-5-3-6-3-5---------3/5-|
D |-0-0-0-0-0-0-0-0-0-0-0-0-0-0-0-0-----------------0-0-0-0-----|

E |-------------------------------------------------------------|
B |-------------------------------------------------------------|
G |-------------------------------------------------------------|
D |---------------------------------------------------------5/7-|
A |---------------------------------3-6-3-5-3-6-3-5---------3/5-|
D |-0-0-0-0-0-0-0-0-0-0-0-0-0-0-0-0-----------------0-0-0-0-----|


Chorus:

Holy angel lift me from this burning hell...
E |------------------------------|--------------------------|
B |------------------------------|--------------------------|
G |------------------------------|--------------------------|
D |--------3--2---------3--5-3-2-|--------3--2---------3--5-|
A |-0--2-3-1--0--0--2-3-1--3-1-0-|-0--2-3-1--0--0--2-3-1--3-|
D |-0--2-3-------0--2-3----------|-0--2-3-------0--2-3------|


Verse:

E |-------------------------------------------------------------|
B |-------------------------------------------------------------|
G |-------------------------------------------------------------|
D |---------------------------------------------------------5/7-|
A |---------------------------------3-6-3-5-3-6-3-5---------3/5-|
D |-0-0-0-0-0-0-0-0-0-0-0-0-0-0-0-0-----------------0-0-0-0-----|

E |-------------------------------------------------------------|
B |-------------------------------------------------------------|
G |-------------------------------------------------------------|
D |---------------------------------------------------------5/7-|
A |---------------------------------3-6-3-5-3-6-3-5---------3/5-|
D |-0-0-0-0-0-0-0-0-0-0-0-0-0-0-0-0-----------------0-0-0-0-----|

E |-------------------------------------------------------------|
B |-------------------------------------------------------------|
G |-------------------------------------------------------------|
D |---------------------------------------------------------5/7-|
A |---------------------------------3-6-3-5-3-6-3-5---------3/5-|
D |-0-0-0-0-0-0-0-0-0-0-0-0-0-0-0-0-----------------0-0-0-0-----|

E |-------------------------------------------------------------|
B |-------------------------------------------------------------|
G |-------------------------------------------------------------|
D |---------------------------------------------------------5/7-|
A |---------------------------------3-6-3-5-3-6-3-5---------3/5-|
D |-0-0-0-0-0-0-0-0-0-0-0-0-0-0-0-0-----------------0-0-0-0-----|


Chorus:

E |------------------------------|--------------------------|
B |------------------------------|--------------------------|
G |------------------------------|--------------------------|
D |--------3--2---------3--5-3-2-|--------3--2---------3--5-|
A |-0--2-3-1--0--0--2-3-1--3-1-0-|-0--2-3-1--0--0--2-3-1--3-|
D |-0--2-3-------0--2-3----------|-0--2-3-------0--2-3------|


Rhytm for solo:

E |----------------------------------------|--------------------------------------------|
B |----------------------------------------|--------------------------------------------|
G |----------------------------------------|--------------------------------------------|
D |----------------------------------------|--------------------------------------------|
A |-7--5-7--5-7-8-10-8--7--5-7--5-7-8-10-8-|-9--7-9--7-9-10-12-10--9--7-9--7-9-10-12-10-|
D |-7--5-7--5-7-8-10-8--7--5-7--5-7-8-10-8-|-9--7-9--7-9-10-12-10--9--7-9--7-9-10-12-10-|


Main riff:

E |----------|--------------|
B |----------|--------------|
G |----------|--------------|
D |-5/7---7--|--------------|
A |-3/5---5--|-5-6-5--0-0-3-|
D |-----0----|-5-6-5--0-0-3-|

E |----------|--------------|
B |----------|--------------|
G |----------|--------------|
D |-5/7---7--|--------------|
A |-3/5---5--|-5-6-5--0-0-3-|
D |-----0----|-5-6-5--0-0-3-|

E |----------|--------------|
B |----------|--------------|
G |----------|--------------|
D |-5/7---7--|--------------|
A |-3/5---5--|-5-6-5--0-0-3-|
D |-----0----|-5-6-5--0-0-3-|

E |----------|--------------|
B |----------|--------------|
G |----------|--------------|
D |-5/7---7--|--------------|
A |-3/5---5--|-5-6-5--0-0-3-|
D |-----0----|-5-6-5--0-0-3-|


Verse:

E |-------------------------------------------------------------|
B |-------------------------------------------------------------|
G |-------------------------------------------------------------|
D |---------------------------------------------------------5/7-|
A |---------------------------------3-6-3-5-3-6-3-5---------3/5-|
D |-0-0-0-0-0-0-0-0-0-0-0-0-0-0-0-0-----------------0-0-0-0-----|

E |-------------------------------------------------------------|
B |-------------------------------------------------------------|
G |-------------------------------------------------------------|
D |---------------------------------------------------------5/7-|
A |---------------------------------3-6-3-5-3-6-3-5---------3/5-|
D |-0-0-0-0-0-0-0-0-0-0-0-0-0-0-0-0-----------------0-0-0-0-----|

E |-------------------------------------------------------------|
B |-------------------------------------------------------------|
G |-------------------------------------------------------------|
D |---------------------------------------------------------5/7-|
A |---------------------------------3-6-3-5-3-6-3-5---------3/5-|
D |-0-0-0-0-0-0-0-0-0-0-0-0-0-0-0-0-----------------0-0-0-0-----|

E |-------------------------------------------------------------|
B |-------------------------------------------------------------|
G |-------------------------------------------------------------|
D |---------------------------------------------------------5/7-|
A |---------------------------------3-6-3-5-3-6-3-5---------3/5-|
D |-0-0-0-0-0-0-0-0-0-0-0-0-0-0-0-0-----------------0-0-0-0-----|


Chorus:

E |------------------------------|------------------------|
B |------------------------------|------------------------|
G |------------------------------|------------------------|
D |--------3--2---------3--5-3-2-|--------3--2---------3--|
A |-0--2-3-1--0--0--2-3-1--3-1-0-|-0--2-3-1--0--0--2-3-1--|
D |-0--2-3-------0--2-3----------|-0--2-3-------0--2-3----|


Ending:

E |-----------------------|
B |-----------------------|
G |-----------------------|
D |-5-3-2--3-2----5-3-2---|
A |-3-1-0--1-0-3--3-1-0-0-|
D |------------3--------0-|
            
Submit corrections

comments powered by Disqus
↑ Back to top | Halford Tabs for Ressurrection. Lyrics for acoustic guitar and electric guitar. 1 Tablatures and chords are parodies/interpretations of the original songs. You may use it for private study, scholarship, research or language learning purposes only