>
 >
Prisoner Of Your Eyes

Prisoner Of Your Eyes Guitar Tabs

Halford - Prisoner Of Your Eyes chords, tabs, tablatures, lyrics

Guitar lessons | Add/correct | Request | Top 50 tabs Artists:  A B C D E F G H I J K L M N O P Q R S T U V W X Y Z 0-9

Prisoner Of Your Eyes Guitar Tabs – Halford

CD, Sheet music, Poster

Do you like Prisoner Of Your Eyes? Share with your friends now
Tabs
INTRO
RIFF#1	
e|--------------------------------------------
b|--------------------------------------------
g|--------------------------------------------
d|---0-------0---------0----0-------0------0--  X3
a|------4--------4-------------4------4-------
E|-7-------7--------7-----5-------5------5----


RIFF#2
e|---------------------------------------------------
b|---------------------------------------------------
g|---------------------------------------------------
d|-----0----------0--------0-----0-------0-------0---
a|--------4----------4-------------4-------4---------
E|--3---------3---------3-----7-------7-------7------



e|--------------------------------------------------------- 
b|--------------------------------------------------------- 
g|---------------------------------------------------------
d|---0-------0---------0------7-----7---7----0------0----  
a|------4--------4----------5-----5------------4------4--
E|-5-------5--------5-----7-----7----7----3------3-------



e|--------------------------------------------------------- 
b|--------------------------------------------------------- 
g|---------------------------------------------------------
d|---------0-----0------0-----0------0------0-----0-----0-----0-- 
a|-----------4------------------4------4------------4-----4------ 
E|-0-1-2-------2---4--2----7-------7------7----5------5-----5----



e|--------------------------------------------------------- 
b|--------------------------------------------------------- 
g|---------------------------------------------------------
D|---0------0------0---0-----0-----0----0-----0-----0------7-----7----7----7---
A|-----4------4----------4-----4----------4-----4--------5-----5-----5---------
E|-3-----3-------3---7-----7-----7----5-----5-----5----7-----7-----7----7------



e|--------------------------------------------------------- 
b|--------------------------------------------------------- 
g|---------------------------------------------------------
D|----0-------0---------------------------------------------- 
A|------4-------4-------------------------------------------- 
E|-3-------3-------0-1-2------------------------------------- 


Verse(distorted)

E|--------------------------------------------------------- 
B|--------------------------------------------------------- 
G|---------------------------------------------------------
D|9--5--7--9--5--7--9S10S9-9S10S9-------------------------- 
A|9--5--7--9--5--7-----------------------------------------
E|7--3--5--7--3--5-----------------------------------------


Chorus:
e|--------------------------------------------------------------- 
b|---------------------------------------------------------------
g|---------------------------------------------------------------
D|-9----5----7---034---------------------------------------------
a|-9----5----7---034--------------------------------------------- 
E|-7----3----5---012---------------------------------------------


continue with intro RIFF#1 AND 2

BRIGDE:
e|----------------------------------------------------------------------------- 
b|----------------------------------------------------------------------------- 
g|-------------------------------------------------------------------------------
D|-X--X--X-X-9--X--X--X-X11-12-11-11-11-X-9-X--X--X--X-X-11-12--X--X--X-X-5-X--X-X-X5-4-7--
a|-X--X--X-X-9--X--X--X-X11-12-11-11-11-X-9-X--X--X--X-X-11-12--X--X--X-X-5-X--X-X-X5-4-7--
E|-X--X--X-X-7--X--X--X-X9--10-9--9--9--X-7-X--X--X--X-X-9--10--X--X--X-X-3-X--X-X-X3-2-5--


e|--------------------------------------------------------- 
b|--------------------------------------------------------- 
g|---------------------------------------------------------
D|-9--7--5-5-5--4------------------------------------------------ 
a|-9--7--5-5-5--4------------------------------------------------ 
E|-7--5--3-3-3--2------------------------------------------------

SOLO:
e|-------------------------------------------------------------------------------------- 
b|-------------------------------------------------------------------------------------- 
g|--------------------------------------------------------------------------------------
D|--7S9--9---11--12--9---9--11--12---9---9--11--12S14S12--11--12--11--7--9-------------- 
a|-------------------------------------------------------------------------------------- 
E|--------------------------------------------------------------------------------------

i cant tab the rest of it :(


after solo, start intro RIFFS 1 AND 2

END WITH CHORUS

xxxxxxxxxxxxxxxxxxxxxxxxxxxxxxxxxxxxxxxxxxxxxxxxxxxxxxxxxxxxxxxxxxxxxxxxxxxxxxxxxxxxxxxxxxxx





Comments


Popular Halford tabs & chords
Light Of The World Chords
Nailed To The Gun Chords
Made In Hell Tabs
Resurection Tabs
Resurrection Tabs
Resurrection 1 Tabs
The One You Love To Hate Tabs
Wrath Of God Tabs
Wrath Of God 1 Tabs
Light Of The World Ukulele


Song lyrics



↑ Back to top | Tablatures and chords are parodies/interpretations of the original songs. You may use it for private study, scholarship, research or language learning purposes only
© 2014 AZChords.com Contact us | Privacy policy | DMCA | Add/correct tabs | Request tabs | Top 50 tabs