» » »

Bad Romance Bass tabs (ver.1)

Artists:  A B C D E F G H I J K L M N O P Q R S T U V W X Y Z # 

Bad Romance Bass tabs (ver.1)

Halestorm
Rating:
0/5 (0 votes)

Tabs too difficult? Try these video lessons and learn fast.
                TUNING:HALF STEP DOWN

Intro/Main riff thingy
F#|------------------------------------------|
C#|------------------------------------------|
G#|-----7-8-7-----7-8-7-----7-8-7--3-3-1-3-3-|
D#|-5-5-------5-5-------5-5------------------|


Verse
F#|----------------------------------------------------|
C#|----------------------------------------------------|
G#|----------------------------------------------7-8-7-|
D#|-5--5-5-5--5-5-5--5-5-5--5-5-5--5-5-5--5-5-5--------|


F#|----------------------------------------------------|
C#|----------------------------------------------------|
G#|----------------------------------------------------|
D#|-5--5-5-5--5-5-5--5-5-5--5-5-5--5-5-5--5-5-5--0-1-0-|


F#|----------------------------------------------------|
C#|----------------------------------------------------|
G#|----------------------------------------------7-8-7-|
D#|-5--5-5-5--5-5-5--5-5-5--5-5-5--5-5-5--5-5-5--------|


F#|----------------------------------------------------|
C#|----------------------------------------------------|
G#|----------------------------------------------------|
D#|-5--5-5-5--5-5-5--5-5-5--5-5-5--5-5-5--5-5-5--0-1-0-|


F#|----------------------------------------------------|
C#|----------------------------------------------------|
G#|----------------------------------------------7-8-7-|
D#|-5--5-5-5--5-5-5--5-5-5--5-5-5--5-5-5--5-5-5--------|


F#|----------------------------------------------------|
C#|----------------------------------------------------|
G#|----------------------------------------------------|
D#|-5--5-5-5--5-5-5--5-5-5--5-5-5--5-5-5--5-5-5--0-1-0-|


F#|----------------------------------------------------|
C#|----------------------------------------------------|
G#|----------------------------------------------7-8-7-|
D#|-5--5-5-5--5-5-5--5-5-5--5-5-5--5-5-5--5-5-5--------|


F#|----------------------------------------------------|
C#|----------------------------------------------------|
G#|----------------------------------------------------|
D#|-5--5-5-5--5-5-5--5-5-5--5-5------------------------|


Chorus
F#|---------------------------------------------------5---5---5---5-|
C#|---3---3---3---3---5---5---5---5---7---7---7---7-----------------|
G#|-------------------------------------------------3---3---3---3---|
D#|-1---1---1---1---3---3---3---3---5---5---5---5-------------------|

F#|---------------------------------------------------5---5---5---5-|
C#|---3---3---3---3---5---5---5---5---7---7---7---7-----------------|
G#|-------------------------------------------------3---3---3---3---|
D#|-1---1---1---1---3---3---3---3---5---5---5---5-------------------|


Bit after chorus:
F#|----------------------------------|
C#|----------------------------------|
G#|----------------------3-3-3/7-8-7-|
D#|-1-1-1--3-3-3--5-5-5--------------|


F#|----------------------------|
C#|----------------------------|
G#|----------------------3-3-3-|
D#|-1-1-1--3-3-3--5-5-5--------|

Repeat Intro/Main Riff

Repeat Verse

Repeat Chorus

Then:

F#|--------------------------------------------------|
C#|--------------------------------------------------|
G#|----------------------------------3-3-3-3-3/7-8-7-|
D#|-1-1-1-1-1--3-3-3-3-3--5-5-5-5-5------------------|


F#|--------------------------------------------|
C#|--------------------------------------------|
G#|----------------------------------3-3-3-3-3-|
D#|-1-1-1-1-1--3-3-3-3-3--5-5-5-5-5------------|


Repeat Intro/Main Riff x2

Then:

F#|--------------------------------------------------------------------|
C#|--------------------------------------------------------------------|
G#|----------------------------------------------------3-3-3-3-3-3-3-3-|
D#|-1-1-1-1-1-1-1-1--3-3-3-3-3-3-3-3--5-5-5-5-5-5-5-5------------------|  X3


F#|---------------------------------------------------|
C#|---------------------------------------------------|
G#|---------------------------------------------------|
D#|-1-1-1-1-1-1-1-1--3-3-3-3-3-3-3-3--5-5-5-5-5-5-5-5-|

Repeat Chorus

Then:

F#|--------------------------------------------------------------------|
C#|--------------------------------------------------------------------|
G#|----------------------------------------------------3-3-3-3-3-3-3-3-|
D#|-1-1-1-1-1-1-1-1--3-3-3-3-3-3-3-3--5-5-5-5-5-5-5-5------------------| X2

Repeat Intro/Main Riff

END :)

Hope the tab makes sense haha Awesome song. I've put it in order, so it's easier to
learn. Wanted to play this real bad but couldn't find any bass tabs for it. So I worked this
out with the help of a guitar tab on here. Probably not the way Josh plays it, but 
sounds alright to me :)
            
Tabs too difficult? Try these video lessons and learn fast.




comments powered by Disqus
↑ Back to top | Tablatures and chords are parodies/interpretations of the original songs. You may use it for private study, scholarship, research or language learning purposes only