>
 >
Bad Romance

Bad Romance Guitar Tabs

Halestorm - Bad Romance chords, tabs, tablatures, lyrics

Guitar lessons | Add/correct | Request | Top 50 tabs Artists:  A B C D E F G H I J K L M N O P Q R S T U V W X Y Z 0-9

Bad Romance Guitar Tabs – Halestorm

CD, Sheet music, Poster

Do you like Bad Romance? Share with your friends now
Bass TabsChordsTabsTabs v2Ukulele
Halestorm
Reanimate: The Covers - EP (2011)

Words & Music by Lady Gaga and Nadir Khayat

NOTE: This is just another way to play it, which also seems more right than
my previous tab.

GTR I - Half-Step Down Tuning "Lzzy Hale" (d#,A#,F#,C#,G#,D#)
GTR II - Half-Step Down Tuning "Joe Hottinger" (d#,A#,F#,C#,G#,D#)

Intro

   GTR II
d#|-------------------------------------------------|
A#|-------------------------------------------------|
F#|-------------------------------------------------|
C#|----------------14-15-14----------------14-15-14-|
G#|-12----12-----x-------------12-12-----x----------|
D#|-------------------------------------------------|

   GTR I
d#|-------------------------------------------------|
A#|-------------------------------------------------|
F#|-------------------------------------------------|
C#|--7--------------------7-------------------------|
G#|--7--------------------7-------------------------|
D#|--5--------------------5------------------/12\---|
  |
  |GTR II
d#|-------------------------------------------------|
A#|----------------17-18-17-------------------------|
F#|-14----14--------x--x--x----17-17-14-17-14-17----|
C#|--x-----x-------14-15-14-----x--x--x--x--x--x----|
G#|-12----12-----x-------------15-15-12-15-12-15----|
D#|-------------------------------------------------|

Main Riff

   GTR I
d#|------------------------------------------------------------------|
A#|------------------------------------------------------------------|
F#|------------------------------------------------------------------|
C#|------------------------------------------------------2---3---2---|
G#|--7-7-7---7---7-7-7---7---7-7-7---7-7-7---7---7-7-7---2---3---2---|
D#|--5-5-5---5---5-5-5---5---5-5-5---5-5-5---5---5-5-5---0---1---0---|
  |  . . .   .   . . .   .   . . .   . . .   .   . . . 
  |GTR II
d#|------------------------------------------------------------------|
A#|---------------------17--18--17----------------------17--18--17---|
F#|-14------14-----------x---x---x------14--14-----------x---x---x---|
C#|--x-------x----------14--15--14-------x---x----------14--15--14---|
G#|-12------12-------x------------------12--12-------x---------------|
D#|------------------------------------------------------------------|

   GTR I
d#|------------------------------------------------------------------|
A#|------------------------------------------------------------------|
F#|------------------------------------------------------------------|
C#|------------------------------------------------------2---3---2---|
G#|--7-7-7---7---7-7-7---7---7-7-7---7-7-7---7---7-7-7---2---3---2---|
D#|--5-5-5---5---5-5-5---5---5-5-5---5-5-5---5---5-5-5---0---1---0---|
  |  . . .   .   . . .   .   . . .   . . .   .   . . . 
  |GTR II
d#|------------------------------------------------------------------|
A#|---------------------17--18--17-----------------------------------|
F#|-14------14-----------x---x---x------17--17--14--17--14--17-------|
C#|--x-------x----------14--15--14-------x---x---x---x---x---x-------|
G#|-12------12-------x------------------15--15--12--15--12--15-------|
D#|------------------------------------------------------------------|

Verse

   GTR I,II
d#|------------------------------------------------------------------|
A#|------------------------------------------------------------------|
F#|------------------------------------------------------9--10---9---|
C#|------------------------------------------------------x---x---x---|
G#|--7-7-7---7---7-7-7---7---7-7-7---7-7-7---7---7-7-7---7---8---7---|
D#|--5-5-5---5---5-5-5---5---5-5-5---5-5-5---5---5-5-5---------------|
     . . .   .   . . .   .   . . .   . . .   .   . . . 

   GTR I,II
d#|------------------------------------------------------------------|
A#|------------------------------------------------------------------|
F#|------------------------------------------------------------------|
C#|------------------------------------------------------2---3---2---|
G#|--7-7-7---7---7-7-7---7---7-7-7---7-7-7---7---7-7-7---2---3---2---|
D#|--5-5-5---5---5-5-5---5---5-5-5---5-5-5---5---5-5-5---0---1---0---|
     . . .   .   . . .   .   . . .   . . .   .   . . . 

   GTR I,II
d#|------------------------------------------------------------------|
A#|------------------------------------------------------------------|
F#|----------------------------------9-------5-------2---------------|
C#|----------------------------------9-------5-------2---2---3---2---|
G#|--7-7-7---7---7-7-7---7---7-7-7---7-------3-------0---2---3---2---|
D#|--5-5-5---5---5-5-5---5---5-5-5-----------------------0---1---0---|
     . . .   .   . . .   .   . . .                      

   GTR I,II
d#|------------------------------------------------------------------|
A#|------------------------------------------------------------------|
F#|------------------------------------------------------------------|
C#|------------------------------------------------------2---3---2---|
G#|--7-7-7---7---7-7-7---7---7-7-7---7-7-7---7---7-7-7---2---3---2---|
D#|--5-5-5---5---5-5-5---5---5-5-5---5-5-5---5---5-5-5---0---1---0---|
     . . .   .   . . .   .   . . .   . . .   .   . . . 

   GTR I,II
d#|------------------------------------------------------------------|
A#|------------------------------------------------------------------|
F#|------------------------------------------------------9--10---9---|
C#|------------------------------------------------------x---x---x---|
G#|--7-7-7---7---7-7-7---7---7-7-7---7-7-7---7---7-7-7---7---8---7---|
D#|--5-5-5---5---5-5-5---5---5-5-5---5-5-5---5---5-5-5---------------|
     . . .   .   . . .   .   . . .   . . .   .   . . . 

   GTR I,II
d#|------------------------------------------------------------------|
A#|------------------------------------------------------------------|
F#|------------------------------------------------------------------|
C#|------------------------------------------------------2---3---2---|
G#|--7-7-7---7---7-7-7---7---7-7-7---7-7-7---7---7-7-7---2---3---2---|
D#|--5-5-5---5---5-5-5---5---5-5-5---5-5-5---5---5-5-5---0---1---0---|
     . . .   .   . . .   .   . . .   . . .   .   . . . 

   GTR I,II
d#|------------------------------------------------------------------|
A#|------------------------------------------------------------------|
F#|----------------------------------9-------5-------2---------------|
C#|----------------------------------9-------5-------2---2---3---2---|
G#|--7-7-7---7---7-7-7---7---7-7-7---7-------3-------0---2---3---2---|
D#|--5-5-5---5---5-5-5---5---5-5-5-----------------------0---1---0---|
     . . .   .   . . .   .   . . .                      

   GTR I,II
d#|------------------------------------------------------------------|
A#|------------------------------------------------------------------|
F#|------------------------------------------------------------------|
C#|----------------------------------7-------------------------------|
G#|--7-7-7---7---7-7-7---7---7-7-7---7-------------------------------|
D#|--5-5-5---5---5-5-5---5---5-5-5---5-------------------------------|
     . . .   .   . . .   .   . . .                     

   GTR I,II
d#|-------------|-------------|-------------|
A#|-------------|-------------|-------------|
F#|-------------|-------------|-------------|
C#|-------------|-------------|-------------|
G#|-------------|-------------|-------------|
D#|-------------|-------------|-------------|

Chorus

   GTR I,II
d#|-------------------------------------------------|
A#|-------------------------------------------------|
F#|-------------------------------------------------|
C#|--3--3--3--3--3--3--3--3--5--5--5--5--5--5--5--5-|
G#|--3--3--3--3--3--3--3--3--5--5--5--5--5--5--5--5-|
D#|--1--1--1--1--1--1--1--1--3--3--3--3--3--3--3--3-|

   GTR I,II
d#|-------------------------------------------------|
A#|-------------------------------------------------|
F#|--------------------------5--5--5--5--5--5--5--5-|
C#|--7--7--7--7--7--7--7--7--5--5--5--5--5--5--5--5-|
G#|--7--7--7--7--7--7--7--7--3--3--3--3--3--3--3--3-|
D#|--5--5--5--5--5--5--5--5-------------------------|

   GTR I,II
d#|-------------------------------------------------|
A#|-------------------------------------------------|
F#|-------------------------------------------------|
C#|--3--3--3--3--3--3--3--3--5--5--5--5--5--5--5--5-|
G#|--3--3--3--3--3--3--3--3--5--5--5--5--5--5--5--5-|
D#|--1--1--1--1--1--1--1--1--3--3--3--3--3--3--3--3-|

   GTR I,II
d#|-------------------------------------------------|
A#|-------------------------------------------------|
F#|-------------------------------------------------|
C#|--6--6--6--6--6--6--6--6--7--7--7--7--7--7--7--7-|
G#|--6--6--6--6--6--6--6--6--7--7--7--7--7--7--7--7-|
D#|--4--4--4--4--4--4--4--4--5--5--5--5--5--5--5--5-|

Chorus 2

   GTR I,II
d#|-------------------------------------------------|
A#|-------------------------------------------------|
F#|--------------4--4--------------------4--4-------|
C#|--3--3--3\----------5--5--5--5--5\----------5--5-|
G#|--3--3--3\----------------5--5--5\---------------|
D#|--1--1--1\----------------3--3--3\---------------|
                 .  .  .  .              .  .  .  .

   GTR I,II
d#|-------------------------------------------------|
A#|-------------------------------------------------|
F#|--------------4--4--------5--5--5\----4--4-------|
C#|--7--7--7\----------7--7--5--5--5\----------7--7-|
G#|--7--7--7\----------------3--3--3\---------------|
D#|--5--5--5\---------------------------------------|
                 .  .  .  .              .  .  .  .

   GTR I,II
d#|-------------------------------------------------|
A#|-------------------------------------------------|
F#|--------------4--4--------------------4--4-------|
C#|--3--3--3\----------5--5--5--5--5\----------5--5-|
G#|--3--3--3\----------------5--5--5\---------------|
D#|--1--1--1\----------------3--3--3\---------------|
                 .  .  .  .              .  .  .  .

   GTR I,II
d#|-------------------------------------------------|
A#|-------------------------------------------------|
F#|--------------4--4--------5--5--5\----4--4-------|
C#|--7--7--7\----------7--7--5--5--5\----------7--7-|
G#|--7--7--7\----------------3--3--3\---------------|
D#|--5--5--5\---------------------------------------|
                 .  .  .  .              .  .  .  .

Main Riff - 1x
Verse     - 1x
Chorus    - 1x
Chorus 2  - 1x
Main Riff - 2x

Bridge

   GTR I,II
d#|-------------------------------------------------|
A#|-------------------------------------------------|
F#|-------------------------------------------------|
C#|-------------------------------------------------|
G#|--3--3--3--3--3--3--3--3--5--5--5--5--5--5--5--5-|
D#|--1--1--1--1--1--1--1--1--3--3--3--3--3--3--3--3-|
     .  .  .  .  .  .  .  .  .  .  .  .  .  .  .  .

   GTR I,II
d#|-------------------------------------------------|
A#|-------------------------------------------------|
F#|-------------------------------------------------|
C#|--------------------------5--5--5--5--5--5--5--5-|
G#|--7--7--7--7--7--7--7--7--3--3--3--3--3--3--3--3-|
D#|--5--5--5--5--5--5--5--5-------------------------|
     .  .  .  .  .  .  .  .  .  .  .  .  .  .  .  .

   GTR I,II
d#|-------------------------------------------------|
A#|-------------------------------------------------|
F#|-------------------------------------------------|
C#|-------------------------------------------------|
G#|--3--3--3--3--3--3--3--3--5--5--5--5--5--5--5--5-|
D#|--1--1--1--1--1--1--1--1--3--3--3--3--3--3--3--3-|
     .  .  .  .  .  .  .  .  .  .  .  .  .  .  .  .

   GTR I,II
d#|-------------------------------------------------|
A#|-------------------------------------------------|
F#|-------------------------------------------------|
C#|-------------------------------------------------|
G#|--6--6--6--6--6--6--6--6--7--7--7--7--7--7--7--7-|
D#|--4--4--4--4--4--4--4--4--5--5--5--5--5--5--5--5-|
     .  .  .  .  .  .  .  .  .  .  .  .  .  .  .  .

  GTR I,II
d#|-------------------------------------------------|
A#|-------------------------------------------------|
F#|-------------------------------------------------|
C#|-------------------------------------------------|
G#|--3--3--3--3--3--3--3--3--5--5--5--5--5--5--5--5-|
D#|--1--1--1--1--1--1--1--1--3--3--3--3--3--3--3--3-|
  |  .  .  .  .  .  .  .  .  .  .  .  .  .  .  .  .
  |GTR II
d#|-------------------------------------------------|
A#|-------13-------13-------------13-------13-------|
F#|----------12-------12-------------12-------12----|
C#|-------------10-------10-------------10-------10-|
G#|-------------------------------------------------|
D#|-------------------------------------------------|

   GTR I,II
d#|-------------------------------------------------|
A#|-------------------------------------------------|
F#|-------------------------------------------------|
C#|--------------------------5--5--5--5--5--5--5--5-|
G#|--7--7--7--7--7--7--7--7--3--3--3--3--3--3--3--3-|
D#|--5--5--5--5--5--5--5--5-------------------------|
  |  .  .  .  .  .  .  .  .  .  .  .  .  .  .  .  .
  |GTR II
d#|-------------------------------------------------|
A#|-------13-------13-------------13-------13-------|
F#|----------12-------12-------------12-------12----|
C#|-------------10-------10-------------10-------10-|
G#|-------------------------------------------------|
D#|-------------------------------------------------|

   GTR I
d#|-------------------------------------------------|
A#|-------------------------------------------------|
F#|-------------------------------------------------|
C#|-------------------------------------------------|
G#|--3--3--3--3--3--3--3--3--5--5--5--5--5--5--5--5-|
D#|--1--1--1--1--1--1--1--1--3--3--3--3--3--3--3--3-|
  |  .  .  .  .  .  .  .  .  .  .  .  .  .  .  .  .
  |GTR II
d#|-------------------------------------------------|
A#|-------------------------------------------------|
F#|-------17-17-16-16-12-12-------17-17-16-16-12-12-|
C#|--------x--x--x--x--x--x--------x--x--x--x--x--x-|
G#|-------15-15-14-14-10-10-------15-15-14-14-10-10-|
D#|-------------------------------------------------|

   GTR I
d#|-------------------------------------------------|
A#|-------------------------------------------------|
F#|-------------------------------------------------|
C#|--------------------------7\---------------------|
G#|--6--6--6--6--6--6--6--6--7\---------------------|
D#|--4--4--4--4--4--4--4--4--5\---------------------|
  |  .  .  .  .  .  .  .  .                        
  |GTR II
d#|-------------------------------------------------|
A#|-------------------------------------------------|
F#|-------17-17-16-16-12-12-14\---------------------|
C#|--------x--x--x--x--x--x--x----------------------|
G#|-------15-15-14-14-10-10-12\---------------------|
D#|-------------------------------------------------|

Chorus - 2x

Outro

   GTR I
d#|-------------------------------------------------|
A#|-------------------------------------------------|
F#|-------------------------------------------------|
C#|--7--------------------------------------7-----7-|
G#|--7--------------------------------------7-----7-|
D#|--5--------------------------------------5-----5-|
  |
  |GTR II
d#|-------------------------------------------------|
A#|----------------17-18-17----------------17-18-17-|
F#|-14----14--------x--x--x----14-14--------x--x--x-|
C#|--x-----x-------14-15-14-----x--x-------14-15-14-|
G#|-12----12-----x-------------12-12-----x----------|
D#|-------------------------------------------------|

   GTR I
d#|-------------------------------------------------|
A#|-------------------------------------------------|
F#|-------------------------------------------------|
C#|--------------------------7--------------------7-|
G#|--------------------------7--------------------7-|
D#|--------------------------5--------------------5-|
  |
  |GTR II
d#|-------------------------------------------------|
A#|----------------17-18-17-------------------------|
F#|-14----14--------x--x--x-------------------------|
C#|--x-----x-------14-15-14--7--------------------7-|
G#|-12----12-----x-----------7--------------------7-|
D#|--------------------------5--------------------5-|


| b  bend
| r  release bend
|trp triplet
|PH. pinch harmonic
|fbk feedback
| .  palm-mute
| /  slide up
| \  slide down
| h  hammer-on
| p  pull-off
| ~  vibrato
|(7) harmonic
| x  Mute note
===============================================================================





Comments


Popular Halestorm tabs & chords
Bad Romance Bass Tabs
I Miss The Misery 2 Bass Tabs
Love Bites So Do I Bass Tabs
I Bet U Wish U Had Me Back Chords
In Your Room Chords
Innocence Chords
It's Not You Tabs
Beautiful With You Ukulele
I Get Off Ukulele
Rock Show Intro Ukulele


Song lyrics



↑ Back to top | Tablatures and chords are parodies/interpretations of the original songs. You may use it for private study, scholarship, research or language learning purposes only
© 2014 AZChords.com Contact us | Privacy policy | DMCA | Add/correct tabs | Request tabs | Top 50 tabs