>
 >
It's Not You

It's Not You Guitar Tabs

Halestorm - It's Not You chords, tabs, tablatures, lyrics

Guitar lessons | Add/correct | Request | Top 50 tabs Artists:  A B C D E F G H I J K L M N O P Q R S T U V W X Y Z 0-9

It's Not You Guitar Tabs – Halestorm

CD, Sheet music, Poster

Do you like It's Not You? Share with your friends now
TabsTabs v2
its not you - halestorm

hey hey hey another tab today love this song its from halestorm
but you probably knew that anywho i am not taking responsibility
for this tab i took it from guitar pro because 1. awesome song
2 awesome tab 3 the one on the site already isnt full and not 100%

Drop Db/C# tuning

heres the intro i think 2 guitars are in this song
but im only tabbing it for one person because im only one person


e---------------------------------------------------|
b---------------------------------------------------|
g---------------------------------------------------|
d-7-7-9-9-9-7-3-3-3-3-3-3-3-5-5-5-5\0-0-2-2-2-2-2-2-|
a-7-7-7-7-7-7-3-3-3-3-3-3-3-5-5-5-5\0-0-2-2-2-2-2-2-|
e-7-7-7-7-7-7-3-3-3-3-3-3-3-5-5-5-5\0-0-2-2-2-2-2-2-|

e-------------------------------------------------------|
b-------------------------------------------------------|
g-------------------------------------------------------|
d-7-7-9-9-9-7-3-3-3-3-3-3-3-5-5-5-5-5-5-5-5-5-5-5-5-3-2-|
a-7-7-7-7-7-7-3-3-3-3-3-3-3-5-5-5-5-5-5-5-5-5-5-5-5-3-2-|
e-7-7-7-7-7-7-3-3-3-3-3-3-3-5-5-5-5-5-5-5-5-5-5-5-5-3-2-|
                            . . . . . . . . . . . .

verse

e--------------------------|
b--------------------------|
g--------------------------|
d--------------------------|
a-0-0-00-x-0-0-x-0-0-x-0-3-|
e-0-0-00-x-0-0-x-0-0-x-0-3-|

e----------------------------|
b----------------------------|
g----------------------------|
d----------------------------|
a-0-0-00-x-0-0-x-0-0-x-0-30--|
e-0-0-00-x-0-0-x-0-0-x-0-30--|

below is the same thing just a different rhythm

e----------------------------|
b----------------------------|
g----------------------------|
d----------------------------|  2x
a-0-0-00-x-0-0-x-0-0-x-0-3-0-|
e-0-0-00-x-0-0-x-0-0-x-0-3-0-|

e------------------|
b------------------|
g------------------|
d------------------|
a-3-0------3-0-----|
e-3-0------3-0-----|

e--------------------------|
b--------------------------|
g--------------------------|
d--------------------------|
a-0-0-00-x-0-0-x-0-0-x-0-0-|
e-0-0-00-x-0-0-x-0-0-x-0-0-|

the prechorus

e-----------------------------------|
b-----------------------------------|
g-----------------------------------|
d-3-3-0-5-5-0-3-3-0-2-0-2-3-2-0-2-3-|
a-3-3-0-5-5-0-3-3-0-2-0-2-3-2-0-2-3-|
e-3-3-0-5-5-0-3-3-0-2-0-2-3-2-0-2-3-|
                    . . . . . . . .

chorus(you can do the intro if your prefer but this is the other guitar
which i do when this comes up as for its not the intro so yeah here)

e-----------------------|
b-----------------------|
g-9-10-12-17-16-9-10-12-|
d-x--x--x--x--x-x--x--x-|
a-7--8-10-15-14-7--8-10-|
e-----------------------|

im not holding your hand all the way through youll have to get the
strumming pattern yourself

bridge

e-------------|
b-------------|
g-------------|
d-2---2---3-3-|
a-2-0-2-0-3-3-|
e-2-0-2-0-3-3-|
    .   . . .

SOLO yippee

e-------------------------|
b-------------------------|
g-14/16-16/17-17/19-19-21-|
d--x--x--x--x--x--x--x--x-|
a-12/14-14/15-15/17-17/19-|
e-------------------------|

e----------------------------------|
b----------------------------------|
g-19B(21)-19B-19B-19B-19B-17-19-17-|
d----------------------------------|
a----------------------------------|
e----------------------------------|

e------------------------------------|
b------------------------------------|
g----------17B(19)-----------17B(19)-|
d-19-17-19----------19-17-19---------| 3x
a------------------------------------|
e------------------------------------|

e-------------------------------|
b-----------------20-20B(22)20B-|
g-------17-19B(21)--------------|
d-17-19-------------------------|
a-------------------------------|
e-------------------------------|

e-------------------------------------|
b-20-17----17-20-17----17-20-17-------|
g-------19----------19----------19-17-|
d-------------------------------------|
a-------------------------------------|
e-------------------------------------|

e--------------------------------|
b----------------17----------17--|
g-19-17----------17----------17--|
d-------19-17-19----19-17-19-----|
a--------------------------------|
e--------------------------------|

e--------------------------------------------|
b---------20-----20-----18B-18B--20B-20B-20B-|
g-19B(21)----19B----19B----------------------|
d--------------------------------------------|
a--------------------------------------------|
e--------------------------------------------|

now the end of the song the outro

e--------------------------|
b--------------------------|
g--------------------------|
d--------------------------|
a-0-0-00-x-0-0-x-0-0-x-0-3-|
e-0-0-00-x-0-0-x-0-0-x-0-3-|

e--------------------|
b--------------------|
g--------------------|
d--------------------|
a-0-0-00-x-0-0-x-0-0-|
e-0-0-00-x-0-0-x-0-0-|

e--------------------------|
b--------------------------|
g--------------------------|
d--------------------------|
a-0-0-00-x-0-0-x-0-0-x-0-3-|
e-0-0-00-x-0-0-x-0-0-x-0-3-|

e--------------------|
b--------------------|
g--------------------|
d--------------------|
a-0-0-00-x-0-0-x-0-0-|
e-0-0-00-x-0-0-x-0-0-|

e---------------------------|
b---------------------------|
g-7-7-----------------------|
d-7-7-----------------------|
a-5-5-0-0-x-0-0-x-0-0-x-0-3-|
e-0-0-0-0-x-0-0-x-0-0-x-0-3-|





Comments


Popular Halestorm tabs & chords
Heres To Us Bass Tabs
Beautiful With You Chords
Break In Chords
Innocence 1 Chords
Unbreakable Promises Chords
Bad Romance 1 Tabs
Freak Like Me Tabs
Innocence Tabs
Familiar Taste Of Poison Ukulele
I Bet U Wish U Had Me Back 2 Ukulele


Song lyrics



↑ Back to top | Tablatures and chords are parodies/interpretations of the original songs. You may use it for private study, scholarship, research or language learning purposes only
© 2014 AZChords.com Contact us | Privacy policy | DMCA | Add/correct tabs | Request tabs | Top 50 tabs