» » »

Hagar Sammy, Three Lock Box Tabs (ver.1)

Artists:  A B C D E F G H I J K L M N O P Q R S T U V W X Y Z # 

Three Lock Box Tabs (ver.1)

Hagar Sammy Tabs
 Rating:
4/5 (4 votes)
Three Lock Box lessons Tabs too difficult? Try these video lessons and learn fast
1
                main                                 ref(1)
e-|----------------------------------| |-------------|
B-|----------------------------------| |-------------|
G-|----------------------------------| |-------------|
D-|------2-2----------2-2------------| |-2-2-2-------|
A-|-3p0--0-0-----3p0--0-0--0-3p0-----| |-0-0-0--5--4-|
E-|----------0-3-----------------3p0-| |--------3--2-|

   ref(2)            ref(2a)       ref(2b)
e-|---------------| |-----------| |------|
B-|---------------| |-----------| |------|
G-|---------------| |-----------| |------|
D-|-2-2-2-2-------| |-----------| |------|
A-|-0-0-0-0--5--4-| |3-3-3-2-2-2| |-3--2-|
E-|----------3--2-| |-----------| |------|

   ref(3)    ref(3a)
e-|-------| |---------|
B-|-------| |---------|
G-|-------| |---------|
D-|-2-2-2-| |-2-------|
A-|-0-0-0-| |-0-4-2-4-|
E-|-------| |---2-0-2-|

play main 6x, ref(1) 1x,
"       " 4x, ref(1) 1x,
"       " 2x, ref(2) 1x, ref(2a) 2x, ref(2b) 1x,
"       " 4x, ref(3) 1x, ref(3a) 4x,
guitar solo,
play main throughout end of song...
            
Submit corrections

comments powered by Disqus
↑ Back to top | Hagar Sammy Tabs for Three Lock Box. Lyrics for acoustic guitar and electric guitar. 1 Tablatures and chords are parodies/interpretations of the original songs. You may use it for private study, scholarship, research or language learning purposes only