>
 >
Mas Tequila

Mas Tequila Guitar Tabs

Hagar Sammy - Mas Tequila chords, tabs, tablatures, lyrics

Guitar lessons | Add/correct | Request | Top 50 tabs Artists:  A B C D E F G H I J K L M N O P Q R S T U V W X Y Z 0-9

Mas Tequila Guitar Tabs – Hagar Sammy

CD, Sheet music, Poster

Do you like Mas Tequila? Share with your friends now
Tabs
Gtr I, II (E A D G B E) - 'Rhythm w/dist'
Gtr III (E A D G B E) - 'Sammy Hagar - Lead w/dist'

Intro
  Q=130(8=s8)
 4/4
  Gtr I
                     d.s. al coda


  &
  gtr iii
           |---3---|          |---3---|          |---3---|          |---3---|
   a      +e    e  e  a      +e    e  e  a      +e    e  e  a      +e    e  e
|-----------------------------------------------------------------------------|
|--------------12-12--------------12-12--------------12-12--------------12-12-|
|-14b16==(14)r-------14b16==(14)r-------14b16==(14)r-------14b16==(14)r-------|
|-----------------------------------------------------------------------------|
|-----------------------------------------------------------------------------|
|-----------------------------------------------------------------------------|
|
| gtrs i, ii
|                                                |---3---|          |---3---|
|          q                  q                  e    e  e          e    e  e
|-----------------------------------------------------------------------------|
|-----------------------------------------------------------------------------|
|----------4------------------4------------------4----4--4----------4----4--4-|
|----------4------------------4------------------4----4--4----------4----4--4-|
|----------2------------------2------------------2----2--2----------2----2--2-|
|-----------------------------------------------------------------------------|


   a      +e   e q  h
|------------------------||
|------------------------||
|-14b16==(14)r-----------||
|------------------------||
|------------------------||
|------------------------||
|
|          e   e q  h
|------------------------||
|------------------------||
|----------4-------------||
|----------4-------------||
|----------2-------------||
|------------------------||


 guitar solo
                                                                        ~~
                                                               |--3--|
   a  h.       +e   +e     +w                      +h     a a  e  e  e  q
|-----------------------|-----------------------|-------------16h17p14-16--|
|-----------------------|-----------------------|-----------x--------------|
|-----------------------|-----------------------|---------x----------------|
|-14s16-------(16)-(16)-|-(16)------------------|-(16)---------------------|
|-----------------------|-----------------------|--------------------------|
|-----------------------|-----------------------|--------------------------|
|
|  a  h.        e    e     +q   e e +q   s s  e    +w
|-----------------------|-----------------------|--------------------------|
|-----------------------|-----------------------|--------------------------|
|--9s11---------9----7--|--(7)--6-4-(4)---------|--------------------------|
|-----------------------|----------------7s9s11-|-(11)---------------------|
|--7s=9---------7----5--|--(5)--4-2-(2)---------|--------------------------|
|-----------------------|----------------5s7s=9-|--(9)---------------------|


    ~~~~                                  ~~~~~~~~~~~~~~~~~~~
         |--3--|  |--3--|  |---3----|
   +q    e  e  e  e  e  e  e  e     e     w              +h.           q
|-(16)--14----------------------------|---------------|-----------------------|
|----------14-17----14----------------|---------------|-----------------------|
|----------------16----14-16-------14-|---------------|-----------------------|
|----------------------------16-------|--16-----------|-(16)------------------|
|-------------------------------------|---------------|-----------------------|
|-------------------------------------|---------------|-----------------------|
|
|  +h.                     e     e       +h.      e e    +q   e e +q   s s  e
|-------------------------------------|---------------|-----------------------|
|-------------------------------------|---------------|-----------------------|
|--------------------------9s===11----|-(11)------9s7-|--(7)--6s4-(4)---------|
|-(11)--------------------------------|---------------|----------------7s9s11-|
|--------------------------7s====9----|--(9)------7s5-|--(5)--4s2-(2)---------|
|--(9)--------------------------------|---------------|----------------5s7s=9-|


        \7____/
                      |--3--|   |-----3-----|
    e   a    +q    e  e  e  e   e   e       e
|---------------------------------------------|
|---------------------------------------------|
|---------------------------------------------|
|--------------------------14------16---------|
|--------------------14h16-----16----------16-|
|------14---(14)--14--------------------------|
|
|  +h.                         +e      a e
|---------------------------------------------|
|---------------------------------------------|
|---------------------------------------------|
|-(11)------------------------(11)----11s9----|
|---------------------------------------------|
|--(9)-------------------------(9)-----9s7----|


                                                 ~~
   |--3---|              |---3----|  |-----3-----|
   e   e  e  s  s  s  s  e   e    e  e  e     a  e
|-----------------------------------14--------------|
|--------------------14-----14---17----14----17s19--|
|--------14----14h16----16--------------------------|
|-14h=16----16--------------------------------------|
|---------------------------------------------------|
|---------------------------------------------------|
|
| +h                    +e     e     e     e
|---------------------------------------------------|
|---------------------------------------------------|
|------------------------------------9h===11--------|
|-(9)-------------------(9)-------------------------|
|------------------------------------7h====9--------|
|-(7)-------------------(7)-------------------------|


    ~~~~
   +h.      a a  e  e    +q    e  a     +e   +q    e  a      +e
|---------------17-16-|-(16)--14---------------------------------|
|-(19)--------x-------|----------17b19r(17)-(17)--14-17b19==(17)-|
|-----------x---------|------------------------------------------|
|---------------------|------------------------------------------|
|---------------------|------------------------------------------|
|---------------------|------------------------------------------|
|
|  +h.           e  e    +q    e         e   +q    e  a       e
|---------------------|------------------------------------------|
|---------------------|------------------------------------------|
|-(11)----------14-13-|-(13)--11---------9---(9)---6--6s=====11--|
|---------------------|------------------------------------------|
|--(9)----------12-11-|-(11)---9---------7---(7)---4--4s======9--|
|---------------------|------------------------------------------|


   +q     e  a      +e   +q    +e   a      +e
|--------14-17b19==(17)-(17)r=(17)-19b21==(19)-|
|-(17)r----------------------------------------|
|----------------------------------------------|
|----------------------------------------------|
|----------------------------------------------|
|----------------------------------------------|
|
|  +h.                         +e   a       e
|----------------------------------------------|
|----------------------------------------------|
|-(11)------------------------(11)-11s======6--|
|----------------------------------------------|
|--(9)-------------------------(9)--9s======4--|
|----------------------------------------------|


                                                ~~~~~~~~~~
          |--3--|  |---3----|  |-------3--------|
   +q     e  e  e  e   e    e  e  e     a      +e     +h      e  +e   e  e
|-(19)r--19-19-17-19--17---19-17-14----------------|-----------------------|
|--------------------------------------17b19==(17)-|-(17)----17r(17)-17-15-|
|--------------------------------------------------|-----------------------|
|--------------------------------------------------|-----------------------|
|--------------------------------------------------|-----------------------|
|--------------------------------------------------|-----------------------|
|
|  +h             +e     e     e     e                +h.             e  e
|--------------------------------------------------|-----------------------|
|--------------------------------------------------|-----------------------|
|--(6)------------(6)----9-----9s===11-------------|-(11)-------------9s=7-|
|--------------------------------------------------|-----------------------|
|--(4)------------(4)----7-----7s====9-------------|--(9)-------------7s=5-|
|--------------------------------------------------|-----------------------|


            \0.5/
                                    ~~~~~~~~~~~
   +q    e  e      +q    e  a      +e     +h       q  q
|--------------------------------------|------------------||
|-(15)--14-----------------------------|------------------||
|----------16-----(16)--14-16b18==(16)-|-(16)r------------||
|----------16-----(16)-----------------|------------------||
|--------------------------------------|------------------||
|--------------------------------------|----------17s=2/--||
|
|  +q    e  e      +q    e          e     +w
|--------------------------------------|------------------||
|--------------------------------------|------------------||
|--(7)---6s=4------(4)-----------------|------------------||
|------------------------7s========11--|-(11)-------------||
|--(5)---4s=2------(2)-----------------|------------------||
|------------------------5s=========9--|--(9)-------------||


  ~                      ~
     |-3-| |-3-| |-3-|      |-3-| |-3--|  |--3--|
  q  e e e e e e e e e   q  e e e e e  e  e  e  e
|----------------------|--------------------------|
|----------------------|-----------------10----10-|
|----------------------|----7---9---9s11----11----|
|----------------7h9-9-|-9----9---9---------------|
|--------7---7s9-------|--------------------------|
|-7--7-7---------------|--------------------------|
|
| q  q     q     q       q  q     q       q
|----------------------|--------------------------|
|----------------------|--------------------------|
|----------------------|--------------------------|
|----------------------|--------------------------|
|-9--9-----9-----9-----|-9--9-----9-------9-------|
|-7--7-----7-----7-----|-7--7-----7-------7-------|


   ~~
          |--3--|  |--3--|          |------3-------|
   q      e  e  e  e  e  e  a      +e   e  a      +e
|-----------------15-16-17-17b19==(17)r---17b19==(17)r-|
|-12-----15-16-17--------------------------------------|
|------------------------------------------------------|
|------------------------------------------------------|
|------------------------------------------------------|
|------------------------------------------------------|
|
|  pm--------------------------------------------|
|  |-3-|  |--3--|  |--3--|          |------3-------|
|  e e e  e  e  e  e  e  e          e   e          e
|------------------------------------------------------|
|------------------------------------------------------|
|------------------------------------------------------|
|------------------------------------------------------|
|------------------------------------------------------|
|--7-7-7--7--7--7--7--7--7----------7---7----------7---|


                                             ~~~~~
  |----3-----|
  e  a      +q      a      +e      e        +h
|---19b22==(19)r---19b23==(19)r---21b24====(21)r----------|
|---------------------------------------------------------|
|---------------------------------------------------------|
|---------------------------------------------------------|
|---------------------------------------------------------|
|---------------------------------------------------------|
|
| |------3-------|          |-----3------|   |--3--|
| e          e   e          e   e        e   e   e e  q
|---------------------------------------------------------|
|---------------------------------------------------------|
|---------------------------------------------------------|
|---------------------------------------------------------|
|-9----------9---9----------9---9--------9---9---9-9------|
|-7----------7---7----------7---7--------7---7---7-7-15\--|


    |-3--|   |--3--|    |--3--|   |--3--|
  a e  e e a e e   e a  e   e e a e e   e
|---0--0-0---0-0---0----0---0-0---0-0---0-|
|-3s5--5-5-3s5-5---5-3s=5---5-5-3s5-5---5-|
|-----------------------------------------|
|-----------------------------------------|
|-----------------------------------------|
|-----------------------------------------|
|
|   q.           e     +q         e   e
|-----------------------------------------|
|-----------------------------------------|
|---9------------7-----(7)\---------------|
|---9------------7-----(7)\---------------|
|---7------------5-----(5)\-------x---x---|
|---------------------------------x---x---|


    |--3--|   |--3--|   |--3--|
  a e e   e a e e   e a e e   e e   e
|---0-0---0---0-0---0---0-0---0--------|
|-3s5-5---5-3s5-5---5-3s5-5---5-3/-----|
|--------------------------------------|
|--------------------------------------|
|----------------------------------14\-|
|----------------------------------14\-|
|
|   e   e     e   e     e   e   e   e
|--------------------------------------|
|--------------------------------------|
|--------------------------------------|
|--------------------------------------|
|-------x-----x---x---------x---x---x--|
|-------x-----x---x---------x---x---x--|


                ~~~~~~~~                          ~~~~~~~~
                                  |-------3-------|
  e  e a    +e  e  +q      q      e  e    a      +e   +h         q
|------------------------------|-12------------------------------------|
|------------------------------|----12---15b17==(15)-(15)-------15r\---|
|----0-2b4==(2)-2r-(2)---/14---|---------------------------------------|
|------------------------------|---------------------------------------|
|------------------------------|---------------------------------------|
|------------------------------|---------------------------------------|
|
| q.            e  +q      e e    e    e               e  e e e  e   e
|------------------------------|---------------------------------------|
|------------------------------|---------------------------------------|
|-9-------------7--(7)\--------|---------------------------------------|
|-9-------------7--(7)\--------|---------------------------------------|
|-7-------------5--(5)\----x-x-|-------x---------------x--x-x-x--x---x-|
|--------------------------x-x-|-------x---------------x--x-x-x--x---x-|


                   |-3--|         |---------3---------|
  e   a      +e   +e    q         q      e      +e    q
|----15b17==(15)-(15)r-15b15.5---12------------------12---|
|---------------------------------------15b17==(15)r------|
|---------------------------------------------------------|
|---------------------------------------------------------|
|---------------------------------------------------------|
|---------------------------------------------------------|
|
| q.                           e +e   e          e      e
|---------------------------------------------------------|
|---------------------------------------------------------|
|-9----------------------------7-(7)\---------------------|
|-9----------------------------7-(7)\---------------------|
|-7----------------------------5-(5)\-x----------x------x-|
|-------------------------------------x----------x------x-|


   |-------3-------|    |----3-----|                         |--3---|
   e  e    a      +e    e  a      +q      s  s      +s   s   e   e  e
|---------------------------------------------------------------------|
|-15-12----------------12----------------15---------------------------|
|---------14b16==(14)r----14b16==(14)r------14pb15r(14)p12--14p=12----|
|------------------------------------------------------------------14-|
|---------------------------------------------------------------------|
|---------------------------------------------------------------------|
|
|  e    e               e              e  e          e       q
|---------------------------------------------------------------------|
|---------------------------------------------------------------------|
|---------------------------------------------------------------------|
|---------------------------------------------------------------------|
|-------x---------------x--------------x-------------x----------------|
|-------x---------------x--------------x-------------x-----/12\-------|


           ~~~~~~~~~~~~~~~~~~~~~~~~~~
           |---3----|  |----3----|      |--3--|  |--3--|  |---3---|
   a      +q   q    q  q  q     +q      e  e  e  e  e  e  e  e    e  q
|------------------------------------|--------------------------------------||
|------------------------------------|----15----15-15-15-15-15---15-15------||
|-14b16==(14)-14---14-14-14r---(14)\-|-16----16-16-16-16-16-16---16-16------||
|------------------------------------|--------------------------------------||
|------------------------------------|--------------------------------------||
|------------------------------------|--------------------------------------||
|
|                                       |--3--|  |--3--|
|          q     q     q     q          e  e  e  e  e  e  e    e     q
|------------------------------------|--------------------------------------||
|------------------------------------|--------------------------------------||
|----------4-----4-----4-----4-------|--4--4--4--4--4--4--4----4------------||
|----------4-----4-----4-----4-------|--4--4--4--4--4--4--4----4------------||
|----------2-----2-----2-----2-------|--2--2--2--2--2--2--2----2------------||
|------------------------------------|-------------------------------3b3.5--||


 interlude
  gtrs i, ii
  w          +w           e e e e e e e e   e e e e e e e e
|-0--------|-(0)--------|-----------------|-----------------|
|-0--------|-(0)--------|-----------------|-----------------|
|----------|------------|-----------------|-----------------|
|----------|------------|-----------------|-----------------|
|----------|------------|-x-x-x-x-x-x-x-x-|-x-x-x-x-x-x-x-x-|
|----------|------------|-x-x-x-x-x-x-x-x-|-x-x-x-x-x-x-x-x-|


                                                                d.s.s. al dbl. coda
                                                        |-3-| |-3-|
  e e e e e e e e   e e e e e e e e   e e e e e e e e   e e e e e e  h
|-----------------|-----------------|-----------------|----------------------||
|-----------------|-----------------|-----------------|----------------------||
|-----------------|-----------------|-----------------|----------------------||
|-----------------|-----------------|-----------------|----------------------||
|-x-x-x-x-x-x-x-x-|-x-x-x-x-x-x-x-x-|-x-x-x-x-x-x-x-x-|-x-x-x-x-x-7s14\------||
|-x-x-x-x-x-x-x-x-|-x-x-x-x-x-x-x-x-|-x-x-x-x-x-x-x-x-|-x-x-x-x-x-7s14\------||


  &&
                |-3-| |-3-| |-3-|
  q  q  q  q    e e e e e e e e e e e
|-------------|-----------------------||
|-------------|-----------------------||
|-4--4--4--4--|-4-4-4-4-4-4-4-4-4-----||
|-4--4--4--4--|-4-4-4-4-4-4-4-4-4-----||
|-2--2--2--2--|-2-2-2-2-2-2-2-2-2-----||
|-------------|-------------------3p0-||


 out-chorus
 rhy fig 4


  gtr iii
                                                                    ~~~~~
                             |------------3------------|
  h     q   e  a      +e     q  a      +q      a      +q    a      +h
|--------------------------|------------------------------------------------|
|--------------------------|------------------------------------------------|
|----------12-14b15==(14)r-|---14b16==(14)r---14b16==(14)r-14b16==(14)r-----|
|--------------------------|------------------------------------------------|
|--------------------------|------------------------------------------------|
|--------------------------|------------------------------------------------|
|
| gtrs i, ii
| q  q  q   q                q              q                       q    q
|--------------------------|------------------------------------------------|
|--------------------------|------------------------------------------------|
|-4--4--4---4--------------|-4--------------4-----------------------4----4--|
|-4--4--4---4--------------|-4--------------4-----------------------4----4--|
|-2--2--2---2--------------|-2--------------2-----------------------2----2--|
|--------------------------|------------------------------------------------|


   |--3--|  |--3--|
   e  e  e  e  e  e  a      +e      e    a      +e      e
|-----------------------------------------------------------|
|----------------------------------15------------------15---|
|-14-14p12-14-14p12-14b16==(14)r--------14b16==(14)r--------|
|-----------------------------------------------------------|
|-----------------------------------------------------------|
|-----------------------------------------------------------|
|
|  |--3--|  |--3--|          |---3----|          |---3----|
|  e  e  e  e  e  e          e   e    e          e   e    e
|-----------------------------------------------------------|
|-----------------------------------------------------------|
|--4--4--4--4--4--4----------4---4----4----------4---4----4-|
|--4--4--4--4--4--4----------4---4----4----------4---4----4-|
|--2--2--2--2--2--2----------2---2----2----------2---2----2-|
|-----------------------------------------------------------|


    h.=h
  q    q       +q.          +e
|-------------------------------|
|-----15b18===(15)r========(15)-|
|-------------------------------|
|-------------------------------|
|-------------------------------|
|-------------------------------|
|
|               |-3--|
| e e  q        q  q q
|-------------------------------|
|-------------------------------|
|-4-----------------------------|
|-4-----------------------------|
|-2-----------------------------|
|--------------------3b3.5------|


  gtr iii
   h.                      e          e
|-12--------------------------------------:
|-------------------------15---------12---:
|-----------------------------------------:
|-----------------------------------------:
|-----------------------------------------:
|-----------------------------------------:
|
| gtr ii
|                          |-----3------|
|  h     e       e         e     e      e
|--0-----0-----------------------0--------:
|--0-------------0---------3------------3-:
|--4--------------------------------------:
|--2--------------------------------------:
|--2--------------------------------------:
|--0--------------------------------------:
|
| gtr iii
|                |--3---|
|  h     e a    +s  +s  s  t t t   t  e
|--0-----0--------------------------------:
|--0-----0--------------------------------:
|--4-------2b3==(2)r(2)p0-------------0---:
|--2-----------------------2p0------------:
|--2---------------------------2p==0------:
|--0--------------------------------------:


                                             |--3--|
   s  s  e  e.     s  t  t    s    s    s    s  s  s  s    s    q    +q    h
|-------12---------------------------------------------------:------------------*|
|-15-12----15-----12-----------------------------------------:------------------*|
|--------------------14p12h==14---12-------------------------:------------------*|
|--------------------------------------14---12h14p12---------:------------------*|
|----------------------------------------------------14---12-:-11---(11)\-------*|
|------------------------------------------------------------:------------------*|
|
|                     |---------5---------|
|  e     e  s s s  s  s    s    s    s    s  q                 +e e   q    h
|--------------------------------------------0---------------:-(0)--------------*|
|--3-----0-----------------------------------0---------------:-(0)--------------*|
|-----------2-0----------------------------------------------:--------9\--------*|
|---------------2--0-----------------------------------------:--------9\--------*|
|---------------------2----1p===0----------------------------:--------7\--------*|
|------------------------------------3----0------------------:----3/------------*|
|
|                                            |----3-----|
|  e     e  s s s  s  e            s    s    e     e    e       e e   q    h
|------------------------------------------------------------:------------------*|
|------------------------------------------------------------:--8s3s==8\--------*|
|------------------------------------------------------------:--7s2s==7\--------*|
|--2-----0------------2------------0-------------------------:------------------*|
|-----------1p0-------------------------2p===0---------------:------------------*|
|---------------3p=0-------------------------------3----0----:------------------*|





Comments


Popular Hagar Sammy tabs & chords
Eagles Fly Chords
Give To Live Chords
Who Has The Right Chords
Give To Live Tabs
High Hopes 1 Tabs
I Cant Drive 5 Tabs
One Way To Rock 1 Tabs
There S Only One Way To Rock Tabs
Three Lock Box Tabs
Who Has The Right Tabs


Song lyrics



↑ Back to top | Tablatures and chords are parodies/interpretations of the original songs. You may use it for private study, scholarship, research or language learning purposes only
© 2014 AZChords.com Contact us | Privacy policy | DMCA | Add/correct tabs | Request tabs | Top 50 tabs