» » »

Hagar Sammy, There S Only One Way To Rock Tabs (ver.1)

Artists:  A B C D E F G H I J K L M N O P Q R S T U V W X Y Z # 

There S Only One Way To Rock Tabs (ver.1)

Hagar Sammy Tabs
 Rating:
4/5 (4 votes)
There S Only One Way To Rock lessons Tabs too difficult? Try these video lessons and learn fast
1
                There's Only One Way To Rock                   |------|
perfomred by Sammy Hagar                       |------|
                                               |--7\--|
Intro: Slide E5 (power chord) from A string -> |------| -> into main riff...

Main (x4)                                        Main (x2)
e-|---------------------|----------------------| |---------------------|----------------------|
B-|---------------------|----------------------| |---------------------|----------------------|
G-|---2-4--2---2--4-2---|----------------------| |---2-4--2---2--4-2---|----------------------|
D-|-4-2-4--2-4-2--4-2-4-|----------------------| |-4-2-4--2-4-2--4-2-4-|----------------------|
A-|-4--------4--------4-|-2--------------------| |-4--------4--------4-|-2--------------------|
E-|---------------------|-0--------------------| |---------------------|-0--------------------|
                         I heard it called...                           Now there's so many...
Main (x2)                                        Main (x2)                            
e-|---------------------|----------------------| |---------------------|----------------------|
B-|---------------------|----------------------| |---------------------|----------------------|
G-|---2-4--2---2--4-2---|----------------------| |---2-4--2---2--4-2---|----------------------|
D-|-4-2-4--2-4-2--4-2-4-|-6--------------------| |-4-2-4--2-4-2--4-2-4-|----------------------|
A-|-4--------4--------4-|-4--------------------| |-4--------4--------4-|-2--------------------|
E-|---------------------|----------------------| |---------------------|-0--------------------|
                         There's only one way...                        How many things can...
Main (x2)                                        Main (x2)              This world can disagree...
e-|---------------------|----------------------| |---------------------|----------------------|
B-|---------------------|----------------------| |---------------------|----------------------|
G-|---2-4--2---2--4-2---|----------------------| |---2-4--2---2--4-2---|----------------------|
D-|-4-2-4--2-4-2--4-2-4-|----------------------| |-4-2-4--2-4-2--4-2-4-|-6--------------------|
A-|-4--------4--------4-|-2--------------------| |-4--------4--------4-|-4--------------------|
E-|---------------------|-0--------------------| |---------------------|----------------------|
                         And if you an*lyze...                          There's only one way...
Main (x2)                And it's not my...      Main (x2)              There's only one way...
e-|---------------------|----------------------| |---------------------|----------------------|
B-|---------------------|----------------------| |---------------------|----------------------|
G-|---2-4--2---2--4-2---|----------------------| |---2-4--2---2--4-2---|----------------------|
D-|-4-2-4--2-4-2--4-2-4-|-6----------7----9----| |-4-2-4--2-4-2--4-2-4-|----------------------|
A-|-4--------4--------4-|-4----------5----7----| |-4--------4--------4-|-6-------7-----2---4--|
E-|---------------------|----------------------| |---------------------|-4-------5-----0---2--|
                         There's only one way...                        Now quickly check...
                         There's only one way...                        Crank out the drums...
                                                  |-------------|
The ending is the "There's only one way..."       |-------------|
measures, each one played twice in a row,         |---4---------|
                                                  |---4-----4---|
then the Main riff repeated x8 and ending with -> |---------4---|
                                                  |-------------|
            
Submit corrections

comments powered by Disqus
↑ Back to top | Hagar Sammy Tabs for There S Only One Way To Rock. Lyrics for acoustic guitar and electric guitar. 1 Tablatures and chords are parodies/interpretations of the original songs. You may use it for private study, scholarship, research or language learning purposes only