» » »

Liquid Lives Tabs (ver.1)

Artists:  A B C D E F G H I J K L M N O P Q R S T U V W X Y Z # 

Liquid Lives Tabs (ver.1)

Hadouken
Rating:
5/5 (4 votes)

Tabs too difficult? Try these video lessons and learn fast.
                E/-------------------------------------------------------|
B/-------------------------------------------------------|
G/-------------------------------------------------------|  X 6
D/------9-9-8-8-7-7-9-9-8-8-7-7-9-9-8-8-7-7-7-7-6-6-5-5--|
A/------9-9-8-8-7-7-9-9-8-8-7-7-9-9-8-8-7-7-7-7-6-6-5-5--|
E/------7-7-6-6-5-5-7-7-6-6-5-5-7-7-6-6-5-5-5-5-4-4-3-3--|

E/---------------------------------------------------|
B/---------------------------------------------------|
G/---------------------------------------------------|
D/------7-7-7-7-10-10-10-10-12-12-12-12-14-14-14-14--|  X 2
A/------7-7-7-7-10-10-10-10-12-12-12-12-14-14-14-14--|
E/------5-5-5-5-8--8--8--8--10-10-10-10-12-12-12-12--|

E/--------------------------------------------------------------------------|
B/--------------------------------------------------------------------------|
G/--------------------------------------------------------------------------|
D/--7-7-7-7-10-10-10-10-12-12-12-12-14-14-14-14-17-17-17-17-19-19-19-19-21--|
A/--7-7-7-7-10-10-10-10-12-12-12-12-14-14-14-14-17-17-17-17-19-19-19-19-21--|
E/--5-5-5-5-8--8--8--8--10-10-10-10-12-12-12-12-15-15-15-15-17-17-17-17-19--|


This whole sequence is repeated 4times, which lasts around 3minutes.
After the 4th repetition of the topline the lyrics come in.
            
Tabs too difficult? Try these video lessons and learn fast.


comments powered by Disqus
↑ Back to top | Tablatures and chords are parodies/interpretations of the original songs. You may use it for private study, scholarship, research or language learning purposes only