» » »

Hadouken, Liquid Lives Bass tabs (ver.1)

Artists:  A B C D E F G H I J K L M N O P Q R S T U V W X Y Z # 

Liquid Lives Bass tabs (ver.1)

Hadouken Tabs
Rating:
5/5 (2 votes)
Liquid Lives lessons Tabs too difficult? Try these video lessons and learn fast
                
Tuning: Normal (EADG)
Intro (comes in at 0.06) and verse
G|---------------------------------------------------------------------------|
D|-------------7-7-6-6-5----7-7-6-6-5----7-7-6-6-5---------------------------|
A|----------------------------------------------------9-9-8-8-7--------------|
E|---------------------------------------------------------------------------|

Chorus    (Spinnin', My head is spinnin')

G|---------------------------------------------------------------------------|
D|---------------------------------------------------------------------------|
A|---0--2--4--6---0--2--4--6---0--2--4--6---7-----5-6-7----------------------|
E|---------------------------------------------6-----------------------------|

Drum Break
G|-----------------------------------------------------------------------------|
D|-----------------------------------------------------------------------------|
A|-----------------------------------------------------------------------------|
E|-3-3-3-3-3-3-3-3-3-3-3-3-3-3-3-3-3-6-6-6-6-6-6-6-6-6-3-3-3-3-3-3-3-3---------|

Order is:

Intro/Verse x3
Chorus
Intro/Verse x2
Chorus
Intro/verse x2
Chorus
Drum Break X2
Chorus
Intro Verse X2
Chorus

Cheers kiiidddaaaa's
| /  slide up
| \  slide down
| h  hammer-on
| p  pull-off
| ~  vibrato
| +  harmonic
| x  Mute note
===============================================================================
            

comments powered by Disqus
↑ Back to top | Hadouken Bass for Liquid Lives. Lyrics for acoustic guitar and electric guitar. Tablatures and chords are parodies/interpretations of the original songs. You may use it for private study, scholarship, research or language learning purposes only