>
 >
Het Is Een Nacht

Het Is Een Nacht Guitar Tabs

Guus Meeuwis - Het Is Een Nacht chords, tabs, tablatures, lyrics

Guitar lessons | Add/correct | Request | Top 50 tabs Artists:  A B C D E F G H I J K L M N O P Q R S T U V W X Y Z 0-9

Het Is Een Nacht Guitar Tabs – Guus Meeuwis

CD, Sheet music, Poster

Do you like Het Is Een Nacht? Share with your friends now
ChordsTabsTabs v2Ukulele
Finally, here is a correct tab of this song, please rate it or leave a comment.

Its nice to play this song with two guitars,
one for the tab and one with chords,
but it sound nice too with one guitar. Have fun!!




Guitar 1

Intro
|--------0-------|---------0-----|--------3------|--------0-2-----|
|------0---0---0-|-------3-------|------3---3----|------3-----3---|
|----0-------0---|-----0---------|-----0------0--|----2-----------|
|----------------|---2-----------|---0-----------|--0-------------|
|----------------|-3-------------|--2------------|----------------|
|--0-------------|---------------|-3-------------|----------------|

|--------0-------|---------0-----|--------3------|------------2---|
|------0---0-----|-------3---3---|------3---3----|------3-----3---|
|----0-------0---|-----0---------|-----0------0--|----2---2---2---|
|--------------2-|---2-----------|---0-----------|--0-------------|
|----------------|-3-------------|--2------------|----------------|
|--0-------------|---------------|-3-------------|----------------|

Guitar 1

Refrain
|-------------0--|---------0-----|----------3----|--------2-------|
|----------0-----|-------3---3---|------------3--|------3---3-----|
|-------0--------|-----0---------|-------0------0|----2-------2---|
|----------------|---2-----------|-----0---------|--0-------------|
|----2-----------|-3-------------|---2-----------|----------------|
|--0-------------|---------------|-3-------------|----------------|

|-------------0--|---------0-----|-----------3---|--------2-------|
|----------0---0-|-------3---3---|---------3---3-|------3---3-----|
|-------0-------0|-----0---------|-------0------0|----2-------2---|
|----------------|---2-----------|-----0---------|--0-------------|
|----2-----------|-3-------------|---2-----------|----------------|
|--0-------------|---------------|-3-------------|----------------|

Guitar 2

   Em                      C
Je vraagt of ik zin heb in sigaret
       G                      D
Het is twee uur 's nachts, we liggen op bed
         Em                    C
In een hotel in een stad, waar niemand ons hoort
     G                   D
Waar niemand ons kent en niemand ons stoort

Guitar 1

Prechorus
|----------------|--------3------|-------2----3--|---2-----0------|
|--------1-------|----------3----|-----3---3----3|-----3-----3---3|
|------0---0-0---|----0-------0--|---2-------2---|-2-----2-----2--|
|----2------2-2--|---0-----------|-0-------------|----------------|
|--3-------------|--2------------|---------------|----------------|
|----------------|-3-------------|---------------|----------------|

|------------0---|--------3------|-----------0---|----------------|
|--------3----3--|----------3----|-------3----3--|-------1--------|
|------0-------0-|----0-------0--|-----0-------0-|-----0-----0---0|
|----2-----------|---0-----------|---2-----------|---2---------2--|
|--3-------------|--2------------|-3-------------|-3--------------|
|----------------|-3-------------|---------------|----------------|


|-------2--------|-2-----0-------|-----------2----|
|-----3-----3----|---3-----3-----|---------3------|
|---2---------2--|-----2-----2---|-------2--------|
|-0-------------3|---------------|-----0----------|
|----------------|---------------|---0------------|
|----------------|---------------|-0--------------|

Guitar 2

      C              G
Op de vloer ligt een lege fles wijn
   D                             D
En kledingstukken die van jou of mij kunnen zijn
    C              G
Een schemering, de radio zacht
   C                C
En deze nacht heeft alles
       D             D
Wat ik van een nacht verwacht

Guitar 1

Chorus
|--3-------------|--2----------2-|--0--------0--3|----------3-----|
|--------------3-|----------3----|---------------|-------------1-1|
|----------0-----|-------2-------|---------------|-----0----------|
|-------0--------|----0----------|--------2------|---2---2------2-|
|----2-----------|---------------|-----2---------|-3--------------|
|----------------|---------------|---------------|----------------|

|--3-------------|--2-----2------|------------0--|------------0---|
|--------------3-|-----------3-3-|---------0-----|---------1------|
|----------0-----|------2-----2--|-----0---------|--------0-------|
|-------0--------|----0----------|---2-----------|-----2----------|
|----2-----------|---------------|-2-------------|---3------------|
|----------------|---------------|---------------|-0--------------|

|--3-------------|--2----------2-|--0--------0--3|----------3-----|
|--------------3-|----------3----|---------------|-------------1-1|
|----------0-----|-------2-------|---------------|-----0----------|
|-------0--------|----0----------|--------2------|---2---2------2-|
|----2-----------|---------------|-----2---------|-3--------------|
|----------------|---------------|---------------|----------------|

|--3-------------|--2-----2------|------------0--|------------0---|
|--------------3-|-----------3-3-|---------0-----|---------1------|
|----------0-----|------2-----2--|-----0---------|--------0-------|
|-------0--------|----0----------|---2-----------|-----2----------|
|----2-----------|---------------|-2-------------|---3------------|
|----------------|---------------|---------------|-0--------------|

|--3-------3-----|--2------2----2|-----------2----|
|--------------3-|-----------3---|---------3------|
|---------------0|-------2----2--|-------2--------|
|-------0--------|----0--------0-|-----0----------|
|----------------|---------------|---0------------|
|----------------|---------------|-0--------------|

Guitar 2

           G             D                 Em           C
Het is een nacht, die je normaal alleen in films ziet
           G                D               Em             C
Het is een nacht, die wordt bezongen in het mooiste lied
           G                D               Em                   C
Het is een nacht waarvan ik dacht dat ik hem nooit beleven zou
     G        D                 Em   C  G  D  D
Maar vannacht beleef ik hem met jou


Guitar 1

Refrain
|-------------0--|---------0-----|----------3----|--------2-------|
|----------0-----|-------3---3---|------------3--|------3---3-----|
|-------0--------|-----0---------|-------0------0|----2-------2---|
|----------------|---2-----------|-----0---------|--0-------------|
|----2-----------|-3-------------|---2-----------|----------------|
|--0-------------|---------------|-3-------------|----------------|

|-------------0--|---------0-----|-----------3---|--------2-------|
|----------0---0-|-------3---3---|---------3---3-|------3---3-----|
|-------0-------0|-----0---------|-------0------0|----2-------2---|
|----------------|---2-----------|-----0---------|--0-------------|
|----2-----------|-3-------------|---2-----------|----------------|
|--0-------------|---------------|-3-------------|----------------|

Guitar 2
           Em        C
Ik ben nog wakker en staar naar het plafond
   G                        D
En ik denk aan hoe de dag lang geleden begon
    Em         C
Het zomaar er vandoor gaan met jou
     G                   D
Niet wetend waar de reis eindigen zou

Guitar 1

Prechorus
|----------------|--------3------|-------2----3--|---2-----0------|
|--------1-------|----------3----|-----3---3----3|-----3-----3---3|
|------0---0-0---|----0-------0--|---2-------2---|-2-----2-----2--|
|----2------2-2--|---0-----------|-0-------------|----------------|
|--3-------------|--2------------|---------------|----------------|
|----------------|-3-------------|---------------|----------------|

|------------0---|--------3------|-----------0---|----------------|
|--------3----3--|----------3----|-------3----3--|-------1--------|
|------0-------0-|----0-------0--|-----0-------0-|-----0-----0---0|
|----2-----------|---0-----------|---2-----------|---2---------2--|
|--3-------------|--2------------|-3-------------|-3--------------|
|----------------|-3-------------|---------------|----------------|


|-------2--------|-2-----0-------|-----------2----|
|-----3-----3----|---3-----3-----|---------3------|
|---2---------2--|-----2-----2---|-------2--------|
|-0-------------3|---------------|-----0----------|
|----------------|---------------|---0------------|
|----------------|---------------|-0--------------|

Guitar 2

   C                  G
Nu lig ik hier in een wildvreemde stad
   D                            D
En heb ik net de nacht van mijn leven gehad
     C                   G
Maar helaas er komt weer licht door de ramen
C                         D
Hoewel voor ons de wereld vannacht heeft stilgestaan

Guitar 1

Chorus
|--3-------------|--2----------2-|--0--------0--3|----------3-----|
|--------------3-|----------3----|---------------|-------------1-1|
|----------0-----|-------2-------|---------------|-----0----------|
|-------0--------|----0----------|--------2------|---2---2------2-|
|----2-----------|---------------|-----2---------|-3--------------|
|----------------|---------------|---------------|----------------|

|--3-------------|--2-----2------|------------0--|------------0---|
|--------------3-|-----------3-3-|---------0-----|---------1------|
|----------0-----|------2-----2--|-----0---------|--------0-------|
|-------0--------|----0----------|---2-----------|-----2----------|
|----2-----------|---------------|-2-------------|---3------------|
|----------------|---------------|---------------|-0--------------|

|--3-------------|--2----------2-|--0--------0--3|----------3-----|
|--------------3-|----------3----|---------------|-------------1-1|
|----------0-----|-------2-------|---------------|-----0----------|
|-------0--------|----0----------|--------2------|---2---2------2-|
|----2-----------|---------------|-----2---------|-3--------------|
|----------------|---------------|---------------|----------------|

|--3-------------|--2-----2------|------------0--|------------0---|
|--------------3-|-----------3-3-|---------0-----|---------1------|
|----------0-----|------2-----2--|-----0---------|--------0-------|
|-------0--------|----0----------|---2-----------|-----2----------|
|----2-----------|---------------|-2-------------|---3------------|
|----------------|---------------|---------------|-0--------------|

|--3-------3-----|--2------2----2|-----------2----|
|--------------3-|-----------3---|---------3------|
|---------------0|-------2----2--|-------2--------|
|-------0--------|----0--------0-|-----0----------|
|----------------|---------------|---0------------|
|----------------|---------------|-0--------------|

Guitar 2

           G             D                 Em           C
Het is een nacht, die je normaal alleen in films ziet
           G                D               Em             C
Het is een nacht, die wordt bezongen in het mooiste lied
           G                D               Em                   C
Het is een nacht waarvan ik dacht dat ik hem nooit beleven zou
     G        D                 Em      C  G  D
Maar vannacht beleef ik hem met jou

The bridge is not played in the original version of the song,
but it's nice anyways.

Guitar 1

Bridge
|----------------|---------------|---------------|----------------|
|-------1--------|-------1-------|---------------|-------3--------|
|-----0----0-0---|-----0----0-0--|-------0-------|-----2----2-2---|
|---2-------2----|---2-------2---|-----0----0-0--|---0-------0----|
|-3--------------|-3-------------|---2-------2---|-0--------------|
|----------------|---------------|-3-------------|----------------|

|----------------|---------------|---------------|-3-33----3-2----|
|-------1--------|-------1-------|---------------|--------3-------|
|-----0----0-0---|-----0----0-0--|-------0-------|-------2--------|
|---2-------2----|---2-------2---|-----0----0-0--|----------------|
|-3--------------|-3-------------|---2-------2---|----------------|
|----------------|---------------|-3-------------|----------------|

Guitar 2
         C                       C
Maar een lied blijft slechts bij woorden
    G                D
Een film is in scene gezet
     C              C      G     D     D
Maar deze nacht met jou is levensecht

Guitar 1

Chorus
<--------------------------no strumming--------------------------->
|----------------|---------------|---------------|----------------|
|----------------|---------------|---------------|----------------|
|----------------|---------------|---------------|----------------|
|----------------|---------------|---------------|----------------|
|----------------|---------------|---------------|----------------|
|----------------|---------------|---------------|----------------|

<-----------------no strumming------------------>
|----------------|---------------|---------------|----------------|
|----------------|---------------|---------------|----------------|
|----------------|---------------|---------------|----------------|
|----------------|---------------|---------------|----------------|
|----------------|---------------|---------------|----------------|
|----------------|---------------|---------------|---------3/5-8--|

Guitar 2

Het is een nacht, die je normaal alleen in films ziet
Het is een nacht, die wordt bezongen in het mooiste lied


Chorus
|--3-------------|--2----------2-|--0--------0--3|----------3-----|
|--------------3-|----------3----|---------------|-------------1-1|
|----------0-----|-------2-------|---------------|-----0----------|
|-------0--------|----0----------|--------2------|---2---2------2-|
|----2-----------|---------------|-----2---------|-3--------------|
|----------------|---------------|---------------|----------------|

|--3-------------|--2-----2------|------------0--|------------0---|
|--------------3-|-----------3-3-|---------0-----|---------1------|
|----------0-----|------2-----2--|-----0---------|--------0-------|
|-------0--------|----0----------|---2-----------|-----2----------|
|----2-----------|---------------|-2-------------|---3------------|
|----------------|---------------|---------------|-0--------------|

|--3-------------|--2----------2-|--0--------0--3|----------3-----|
|--------------3-|----------3----|---------------|-------------1-1|
|----------0-----|-------2-------|---------------|-----0----------|
|-------0--------|----0----------|--------2------|---2---2------2-|
|----2-----------|---------------|-----2---------|-3--------------|
|----------------|---------------|---------------|----------------|

|--3-------------|--2-----2------|------------0--|------------0---|
|--------------3-|-----------3-3-|---------0-----|---------1------|
|----------0-----|------2-----2--|-----0---------|--------0-------|
|-------0--------|----0----------|---2-----------|-----2----------|
|----2-----------|---------------|-2-------------|---3------------|
|----------------|---------------|---------------|-0--------------|

Guitar 2

           G                D               Em                   C
Het is een nacht waarvan ik dacht dat ik hem nooit beleven zou
     G        D                 Em      C
Maar vannacht beleef ik hem met jou
     G        D                 Em      C
Ja vannacht beleef ik hem met jou
      G   D                   Em     C
En ik hou alleen nog maar van jou

Guitar 1

Outro
|-----------3----|-----------2---|---------------|-----------3----|
|---------3------|---------3-----|---------------|---------3------|
|-------0--------|-------2-------|---------------|-------0--------|
|-----0----------|-----0---------|---------------|-----0----------|
|---2------------|---0-----------|---------------|---2------------|
|-3--------------|-0-------------|---------------|-3--------------|

Guitar 2

      G   D                   G
En ik hou alleen nog maar van jou





Comments


Popular Guus Meeuwis tabs & chords
De Weg Chords
Geef Me Je Angst Chords
Genoten Chords
Heet Is Ne Nacht Deutsch Chords
Per Spoor Chords
T Dondert En T Bliksemt Chords
T Is Altijd Lente Chords
Brabant Ukulele
Dat Komt Door Jou Ukulele
Hou Me Gewoon Maar Even Vast Ukulele


Song lyrics



↑ Back to top | Tablatures and chords are parodies/interpretations of the original songs. You may use it for private study, scholarship, research or language learning purposes only
© 2014 AZChords.com Contact us | Privacy policy | DMCA | Add/correct tabs | Request tabs | Top 50 tabs