» » »

Het Is Een Nacht Tabs (ver.2)

Artists:  A B C D E F G H I J K L M N O P Q R S T U V W X Y Z # 

Het Is Een Nacht Tabs (ver.2)

Guus Meeuwis
Rating:
5/5 (7 votes)

Hard to play? Try these video lessons and learn fast.
                Singer:                Guus Meeuwis 

Note:                  This is my first tab so if somthing don't sound well
                       please report 




Intro:


   Em              C            G                  D
E|-0----------------------------3-------------------------------|
A|---2-------------3--------------2-----------------------------|
D|-------------------2--------------0--------------0------------|
G|-----0-----0---------0--------------0-------0------2----------|
B|---------0-------------1--------------0---0----------3--------|
e|-------0-----------------0--------------1--------------2-3-2--|

   Em              C            G                  D
E|-0----------------------------3-------------------------------|
A|---2-------------3--------------2-----------------------------|
D|-------------------2--------------0--------------0------------|
G|-----0-----0---------0--------------0-------0------2---2------|
B|---------0-------------1---1----------0---0----------3--------|
e|-------0-----------------0--------------1----------------2----|


Part 1:
  

     Em                          C         
E|---0----------------------------------------------------------|
A|-----2-------------------------3------------------------------|
D|---------------------------------2----------------------------|
G|-------0-----0---------------------0--------------------------|
B|-----------0-------------------------1---1--------------------|
e|---------0-----------------------------0----------------------|
   Je vraagt of ik zin heb in een sigaret

      G                        D
E|----3---------------------------------------------------------|
A|------2-------------------------------------------------------|
D|--------0--------------------0--------------------------------|
G|----------0-------0------------2------------------------------|
B|------------0---0----------------3----------------------------|
e|--------------1--------------------2-3-2----------------------|
't is twee uur 's nachts, we liggen op bed

        Em                     C         
E|------0-------------------------------------------------------|
A|--------2---------------------3-------------------------------|
D|--------------------------------2-----------------------------|
G|----------0-----0-----------------0---------------------------|
B|--------------0---------------------1-------------------------|
e|------------0------------------------0------------------------|
In een hotel in een stad, waar niemand ons hoort

      G                   D
E|----3---------------------------------------------------------|
A|------2-------------------------------------------------------|
D|--------0---------------0-------------------------------------|
G|----------0-------0-------2-----------------------------------|
B|------------0---0-----------3---------------------------------|
e|--------------1---------------2-3-2---------------------------|
 waar niemand ons kent en niemand ons stoort

       C                  G                
E|------------------------3-------------------------------------|
A|-----3--------3-----------2-----------------------------------|
D|-------2--------------------0---------------------------------|
G|-----------0--------0---------0-------------------------------|
B|---------1--------1-------------0-----------------------------|
e|----------------0-----------------1---------------------------|
 Op de vloer,  ligt  een  lege fles wijn

      D
E|--------------------------------------------------------------|
A|--------------------------------------------------------------|
D|----0----------------0----------------0-----------------------|
G|------2---2-----2------2---2-----2------2---2-----2-----------|
B|--------3-----3---3------3-----3---3------3-----3---3---------|
e|------------2----------------2----------------2---------------|
  en kleding stukken die van jouw of mij kunnen zijn

       C                    G                
E|--------------------------3-----------------------------------|
A|-----3--------3-------------2---------------------------------|
D|-------2----------------------0-------------------------------|
G|-----------0--------0-----------0-----------------------------|
B|---------1--------1---------------0---------------------------|
e|----------------0-------------------1-------------------------|
  een schemering, de radio zacht
  
    C                              D                              D
E|---------------------------------------------------------------------|
A|--3----------------3-------------------------------------------------|
D|----2----------------2------------0----------------0------------0----|
G|------0---0-----0------0------------2---2-----2------2-------2--2----|
B|--------1-----1----------1---1--------3-----3---3------3---3----3----|
e|------------0--------------0--------------2--------------2------2----|
en deze nacht heeft alles, wat   ik van een nacht verwacht


Refrain:


	     G	                 D		     C
                   ^  ^     ^          ^  ^     ^          ^  ^     ^
E|-----------3--3--3--3--3--3------------------------------------------|
A|-----------2--2--2--2--2--2------------------------3--3--3--3--3--3--|
D|-----------0--0--0--0--0--0----0--0--0--0--0--0----2--2--2--2--2--2--|
G|-----------0--0--0--0--0--0----2--2--2--2--2--2----0--0--0--0--0--0--|
B|-----------0--0--0--0--0--0----3--3--3--3--3--3----1--1--1--1--1--1--|
e|-----------1--1--1--1--1--1----2--2--2--2--2--2----0--0--0--0--0--0--|
             v  v        v       v  v        v       v  v        v
 Het is een nacht,    die je     normaal alleen in   film ziet

	     G	                 D		     C
                   ^  ^     ^          ^  ^     ^          ^  ^     ^
E|-----------3--3--3--3--3--3------------------------------------------|
A|-----------2--2--2--2--2--2------------------------3--3--3--3--3--3--|
D|-----------0--0--0--0--0--0----0--0--0--0--0--0----2--2--2--2--2--2--|
G|-----------0--0--0--0--0--0----2--2--2--2--2--2----0--0--0--0--0--0--|
B|-----------0--0--0--0--0--0----3--3--3--3--3--3----1--1--1--1--1--1--|
e|-----------1--1--1--1--1--1----2--2--2--2--2--2----0--0--0--0--0--0--|
             v  v        v       v  v        v       v  v        v
 Het is een nacht,   die wordt   bezongen in het     mooiste lied



	     G	                 D		     Em                  C
                   ^  ^     ^          ^  ^     ^          ^  ^     ^          ^  ^     ^
E|-----------3--3--3--3--3--3------------------------0--0--0--0--0--0----------------------|
A|-----------2--2--2--2--2--2------------------------2--2--2--2--2--2----3--3--3--3--3--3--|
D|-----------0--0--0--0--0--0----0--0--0--0--0--0----2--2--2--2--2--2----2--2--2--2--2--2--|
G|-----------0--0--0--0--0--0----2--2--2--2--2--2----0--0--0--0--0--0----0--0--0--0--0--0--|
B|-----------0--0--0--0--0--0----3--3--3--3--3--3----0--0--0--0--0--0----1--1--1--1--1--1--|
e|-----------1--1--1--1--1--1----2--2--2--2--2--2----0--0--0--0--0--0----0--0--0--0--0--0--|
             v  v        v       v  v        v       v  v        v       v  v        v
 Het is een nacht waarvan ik     dacht dat ik hem    nooit beleven       zou


	     G	                 D	             C
                   ^  ^     ^          ^  ^     ^          ^  ^     ^
E|-----------3--3--3--3--3--3------------------------------------------|
A|-----------2--2--2--2--2--2------------------------3--3--3--3--3--3--|
D|-----------0--0--0--0--0--0----0--0--0--0--0--0----2--2--2--2--2--2--|
G|-----------0--0--0--0--0--0----2--2--2--2--2--2----0--0--0--0--0--0--|
B|-----------0--0--0--0--0--0----3--3--3--3--3--3----1--1--1--1--1--1--|
e|-----------1--1--1--1--1--1----2--2--2--2--2--2----0--0--0--0--0--0--|
             v  v        v       v  v        v       v  v        v
     maar vannacht beleef ik     hem met             jou


Part 2:
  

             Em                 C     
                ^  ^     ^            ^  ^     ^
E|-----------0--0--0--0--0--0-----------------------------------|
A|-----------2--2--2--2--2--2---3--3--3--3--3--3----------------|
D|-----------2--2--2--2--2--2---2--2--2--2--2--2----------------|
G|-----------0--0--0--0--0--0---0--0--0--0--0--0----------------|
B|-----------0--0--0--0--0--0---1--1--1--1--1--1----------------|
e|-----------0--0--0--0--0--0---0--0--0--0--0--0----------------|
             v  v        v      v  v        v
  Ik ben nog wakker   en   ik   staar naar het plafond

	     G	                 D	             
                   ^  ^     ^          ^  ^     ^          
E|-----------3--3--3--3--3--3-----------------------------------|
A|-----------2--2--2--2--2--2-----------------------------------|
D|-----------0--0--0--0--0--0----0--0--0--0--0--0---------------|
G|-----------0--0--0--0--0--0----2--2--2--2--2--2---------------|
B|-----------0--0--0--0--0--0----3--3--3--3--3--3---------------|
e|-----------1--1--1--1--1--1----2--2--2--2--2--2---------------|
             v  v        v       v  v        v       
       en ik denk  aan  de  dag  lang geleden begon

             Em                 C     
                ^  ^     ^            ^  ^     ^
E|-----------0--0--0--0--0--0-----------------------------------|
A|-----------2--2--2--2--2--2---3--3--3--3--3--3----------------|
D|-----------2--2--2--2--2--2---2--2--2--2--2--2----------------|
G|-----------0--0--0--0--0--0---0--0--0--0--0--0----------------|
B|-----------0--0--0--0--0--0---1--1--1--1--1--1----------------|
e|-----------0--0--0--0--0--0---0--0--0--0--0--0----------------|
             v  v        v      v  v        v
Het zomaar ervandoor gaan met jou,

	     G	                 D	             
                   ^  ^     ^          ^  ^     ^          
E|-----------3--3--3--3--3--3-----------------------------------|
A|-----------2--2--2--2--2--2-----------------------------------|
D|-----------0--0--0--0--0--0----0--0--0--0--0--0---------------|
G|-----------0--0--0--0--0--0----2--2--2--2--2--2---------------|
B|-----------0--0--0--0--0--0----3--3--3--3--3--3---------------|
e|-----------1--1--1--1--1--1----2--2--2--2--2--2---------------|
             v  v        v       v  v        v       
       niet weten waar de  reis  eindigen zou

     C                   G
           ^  ^     ^          ^  ^     ^
E|-----------------------3--3--3--3--3--3-----------------------|
A|---3--3--3--3--3--3----2--2--2--2--2--2-----------------------|
D|---2--2--2--2--2--2----0--0--0--0--0--0-----------------------|
G|---0--0--0--0--0--0----0--0--0--0--0--0-----------------------|
B|---1--1--1--1--1--1----0--0--0--0--0--0-----------------------|
e|---0--0--0--0--0--0----1--1--1--1--1--1-----------------------|
     v  v        v       v  v        v
  Nu lig ik hier in een wild vreemde stad

   D                    D	     
         ^  ^     ^           ^  ^     ^         
E|--------------------------------------------------------------|
A|--------------------------------------------------------------|
D|-0--0--0--0--0--0-----0--0--0--0--0--0------------------------|
G|-2--2--2--2--2--2-----2--2--2--2--2--2------------------------|
B|-3--3--3--3--3--3-----3--3--3--3--3--3------------------------|
e|-2--2--2--2--2--2-----2--2--2--2--2--2------------------------|
   v  v        v        v  v        v
en heb net de nacht van mijn leven gehad

     C                   G
           ^  ^     ^          ^  ^     ^
E|-----------------------3--3--3--3--3--3-----------------------|
A|---3--3--3--3--3--3----2--2--2--2--2--2-----------------------|
D|---2--2--2--2--2--2----0--0--0--0--0--0-----------------------|
G|---0--0--0--0--0--0----0--0--0--0--0--0-----------------------|
B|---1--1--1--1--1--1----0--0--0--0--0--0-----------------------|
e|---0--0--0--0--0--0----1--1--1--1--1--1-----------------------|
     v  v        v       v  v        v
Maar helaas er komt weer licht door de ramen
  
     D		         C
           ^  ^     ^                ^  ^     ^
E|--------------------------------------------------------------|
A|-----------------------------3--3--3--3--3--3---3-------------|
D|---0--0--0--0--0--0----------2--2--2--2--2--2---2-------------|
G|---2--2--2--2--2--2----------0--0--0--0--0--0---0-------------|
B|---3--3--3--3--3--3----------1--1--1--1--1--1---1-------------|
e|---2--2--2--2--2--2----------0--0--0--0--0--0---0-------------|
     v  v        v             v  v        v      v
    hoewel voor ons de wereld, vannacht heeft stil gestaan


Refrain:


	     G	                 D		     C
                   ^  ^     ^          ^  ^     ^          ^  ^     ^
E|-----------3--3--3--3--3--3------------------------------------------|
A|-----------2--2--2--2--2--2------------------------3--3--3--3--3--3--|
D|-----------0--0--0--0--0--0----0--0--0--0--0--0----2--2--2--2--2--2--|
G|-----------0--0--0--0--0--0----2--2--2--2--2--2----0--0--0--0--0--0--|
B|-----------0--0--0--0--0--0----3--3--3--3--3--3----1--1--1--1--1--1--|
e|-----------1--1--1--1--1--1----2--2--2--2--2--2----0--0--0--0--0--0--|
             v  v        v       v  v        v       v  v        v
 Het is een nacht,    die je     normaal alleen in   film ziet

	     G	                 D		     C
                   ^  ^     ^          ^  ^     ^          ^  ^     ^
E|-----------3--3--3--3--3--3------------------------------------------|
A|-----------2--2--2--2--2--2------------------------3--3--3--3--3--3--|
D|-----------0--0--0--0--0--0----0--0--0--0--0--0----2--2--2--2--2--2--|
G|-----------0--0--0--0--0--0----2--2--2--2--2--2----0--0--0--0--0--0--|
B|-----------0--0--0--0--0--0----3--3--3--3--3--3----1--1--1--1--1--1--|
e|-----------1--1--1--1--1--1----2--2--2--2--2--2----0--0--0--0--0--0--|
             v  v        v       v  v        v       v  v        v
 Het is een nacht,   die wordt   bezongen in het     mooiste lied



	     G	                 D		     Em                  C
                   ^  ^     ^          ^  ^     ^          ^  ^     ^          ^  ^     ^
E|-----------3--3--3--3--3--3------------------------0--0--0--0--0--0----------------------|
A|-----------2--2--2--2--2--2------------------------2--2--2--2--2--2----3--3--3--3--3--3--|
D|-----------0--0--0--0--0--0----0--0--0--0--0--0----2--2--2--2--2--2----2--2--2--2--2--2--|
G|-----------0--0--0--0--0--0----2--2--2--2--2--2----0--0--0--0--0--0----0--0--0--0--0--0--|
B|-----------0--0--0--0--0--0----3--3--3--3--3--3----0--0--0--0--0--0----1--1--1--1--1--1--|
e|-----------1--1--1--1--1--1----2--2--2--2--2--2----0--0--0--0--0--0----0--0--0--0--0--0--|
             v  v        v       v  v        v       v  v        v       v  v        v
 Het is een nacht waarvan ik     dacht dat ik hem    nooit beleven       zou


	     G	                 D	             C
                   ^  ^     ^          ^  ^     ^          ^  ^     ^
E|-----------3--3--3--3--3--3------------------------------------------|
A|-----------2--2--2--2--2--2------------------------3--3--3--3--3--3--|
D|-----------0--0--0--0--0--0----0--0--0--0--0--0----2--2--2--2--2--2--|
G|-----------0--0--0--0--0--0----2--2--2--2--2--2----0--0--0--0--0--0--|
B|-----------0--0--0--0--0--0----3--3--3--3--3--3----1--1--1--1--1--1--|
e|-----------1--1--1--1--1--1----2--2--2--2--2--2----0--0--0--0--0--0--|
             v  v        v       v  v        v       v  v        v
     maar vannacht beleef ik     hem met             jou


Part 3:


         C                    C
               ^  ^     ^              ^  ^     ^
E|---------------------------------------------------------------------|
A|-------3--3--3--3--3--3--------3--3--3--3--3--3----------------------|
D|-------2--2--2--2--2--2--------2--2--2--2--2--2----------------------|
G|-------0--0--0--0--0--0--------0--0--0--0--0--0----------------------|
B|-------1--1--1--1--1--1--------1--1--1--1--1--1----------------------|
e|-------0--0--0--0--0--0--------0--0--0--0--0--0----------------------|
         v  v        v           v  v        v
Maar een lied blijft slechts bij woorden

	     G	                 D	          
                   ^  ^     ^          ^  ^     ^ 
E|-----------3--3--3--3--3--3------------------------------------------|
A|-----------2--2--2--2--2--2------------------------------------------|
D|-----------0--0--0--0--0--0----0--0--0--0--0--0----------------------|
G|-----------0--0--0--0--0--0----2--2--2--2--2--2----------------------|
B|-----------0--0--0--0--0--0----3--3--3--3--3--3----------------------|
e|-----------1--1--1--1--1--1----2--2--2--2--2--2----------------------|
             v  v        v       v  v        v     		
       een  film  is  in  scene  gezet

         C                    C
               ^  ^     ^              ^  ^     ^
E|---------------------------------------------------------------------|
A|-------3--3--3--3--3--3--------3--3--3--3--3--3----------------------|
D|-------2--2--2--2--2--2--------2--2--2--2--2--2----------------------|
G|-------0--0--0--0--0--0--------0--0--0--0--0--0----------------------|
B|-------1--1--1--1--1--1--------1--1--1--1--1--1----------------------|
e|-------0--0--0--0--0--0--------0--0--0--0--0--0----------------------|
         v  v        v           v  v        v
    Maar deze nacht met jouw

       	     G	                 D	          
                   ^  ^     ^          ^  ^     ^ 
E|-----------3--3--3--3--3--3------------------------------------------|
A|-----------2--2--2--2--2--2------------------------------------------|
D|-----------0--0--0--0--0--0----0--0--0--0--0--0----------------------|
G|-----------0--0--0--0--0--0----2--2--2--2--2--2----------------------|
B|-----------0--0--0--0--0--0----3--3--3--3--3--3----------------------|
e|-----------1--1--1--1--1--1----2--2--2--2--2--2----------------------|
             v  v        v       v  v        v     		
          is levensecht


Outro:



(Stil, klap)
Het is een nacht, die je normaal alleen in film ziet

(Stil, klap)
Het is een nacht, die wordt bezongen in het mooiste lied

	     G	                 D		     Em                  C
                   ^  ^     ^          ^  ^     ^          ^  ^     ^          ^  ^     ^
E|-----------3--3--3--3--3--3------------------------0--0--0--0--0--0----------------------|
A|-----------2--2--2--2--2--2------------------------2--2--2--2--2--2----3--3--3--3--3--3--|
D|-----------0--0--0--0--0--0----0--0--0--0--0--0----2--2--2--2--2--2----2--2--2--2--2--2--|
G|-----------0--0--0--0--0--0----2--2--2--2--2--2----0--0--0--0--0--0----0--0--0--0--0--0--|
B|-----------0--0--0--0--0--0----3--3--3--3--3--3----0--0--0--0--0--0----1--1--1--1--1--1--|
e|-----------1--1--1--1--1--1----2--2--2--2--2--2----0--0--0--0--0--0----0--0--0--0--0--0--|
             v  v        v       v  v        v       v  v        v       v  v        v
 Het is een nacht waarvan ik     dacht dat ik hem    nooit beleven       zou


	     G	                 D	             C
                   ^  ^     ^          ^  ^     ^          ^  ^     ^
E|-----------3--3--3--3--3--3------------------------------------------|
A|-----------2--2--2--2--2--2------------------------3--3--3--3--3--3--|
D|-----------0--0--0--0--0--0----0--0--0--0--0--0----2--2--2--2--2--2--|
G|-----------0--0--0--0--0--0----2--2--2--2--2--2----0--0--0--0--0--0--|
B|-----------0--0--0--0--0--0----3--3--3--3--3--3----1--1--1--1--1--1--|
e|-----------1--1--1--1--1--1----2--2--2--2--2--2----0--0--0--0--0--0--|
             v  v        v       v  v        v       v  v        v
     maar vannacht beleef ik     hem met             jou
	     G	                 D	             C
                   ^  ^     ^          ^  ^     ^          ^  ^     ^
E|-----------3--3--3--3--3--3------------------------------------------|
A|-----------2--2--2--2--2--2------------------------3--3--3--3--3--3--|
D|-----------0--0--0--0--0--0----0--0--0--0--0--0----2--2--2--2--2--2--|
G|-----------0--0--0--0--0--0----2--2--2--2--2--2----0--0--0--0--0--0--|
B|-----------0--0--0--0--0--0----3--3--3--3--3--3----1--1--1--1--1--1--|
e|-----------1--1--1--1--1--1----2--2--2--2--2--2----0--0--0--0--0--0--|
             v  v        v       v  v        v       v  v        v
        Ja vannacht beleef ik    hem met             jou

(Stil)
En ik hou alleen nog maar van jou

(Stil)
En ik hou alleen nog maar van jou
            
Hard to play? Try these video lessons and learn fast. | Correct




comments powered by Disqus
↑ Back to top | Tablatures and chords are parodies/interpretations of the original songs. You may use it for private study, scholarship, research or language learning purposes only