» » »

Guns N Roses, There Was A Time Tabs (ver.2)

Artists:  A B C D E F G H I J K L M N O P Q R S T U V W X Y Z # 

There Was A Time Tabs (ver.2)

Guns N Roses Tabs
 Rating:
4/5 (4 votes)
There Was A Time lessons Tabs too difficult? Try these video lessons and learn fast
                There Was A Time - Guns N' Roses (solo #1)

Here's the first solo of There Was A Time from the (New)Guns N' Roses album 
Chinese Democracy.

Suggestions and/or comments: PM me.

Oh, the guitar's tuned down one step (as usual) but you can also play it in standard tuning

Enjoy it!!

e|----------1h2------------1h2-1h2------0-------------------------------1h2--|
B|----2b-----------2b----------------------0--------2brb--0----2b------------|
G|---------------------------------------------------------------------------|
D|---------------------------------------------------------------------------|
A|---------------------------------------------------------------------------|
E|---------------------------------------------------------------------------|

e|------------1h2-1h2---0----------------7p5----7----------5-9-9br--7--------|
B|----2b--------------------0---6b-----------------7-------------------------|
G|----------------------------------------------------------------------9----|
D|---------------------------------------------------------------------------|
A|---------------------------------------------------------------------------|
E|---------------------------------------------------------------------------|

e|-------------7-9br-7--------7----------------------------------------------|
B|-----7-10---------------10-------5b--------5brbrbr-------------------------|
G|---------------------------------------------------------------------------|
D|---------------------------------------------------------------------------|
A|---------------------------------------------------------------------------|
E|---------------------------------------------------------------------------|
            
Submit corrections

comments powered by Disqus
↑ Back to top | Guns N Roses Tabs for There Was A Time. Lyrics for acoustic guitar and electric guitar. Tablatures and chords are parodies/interpretations of the original songs. You may use it for private study, scholarship, research or language learning purposes only