» » »

Guns N Roses, There Was A Time Tabs (ver.3)

Artists:  A B C D E F G H I J K L M N O P Q R S T U V W X Y Z # 

There Was A Time Tabs (ver.3)

Guns N Roses Tabs
Rating:
0/5 (0 votes)
There Was A Time lessons Tabs too difficult? Try these video lessons and learn fast
                                            There was a time solo 
                               Guns n Roses 
                             Chinese Democracy

this song is gonna be in Guns n Roses upcoming album chinese democracy.  
I'm working on the rest of this solo and some other songs in chinese democracy

(2:35)      (bend slowly)
         ~~               ~~                                    ~~~       
e-------------1/2-------------1/2-1/2---0----------------------------|
B--2b---------------2b----------------------------2brbrp0-2b---------|
G---------------------------------------------4----------------------| 
D--------------------------------------------------------------------|
A--------------------------------------------------------------------|
E--------------------------------------------------------------------|
              ~~~                            ~~~
e--1/2------------1/2-1/2---0-------------------------|
B--------2--------------------------6b----------------|
G-------------------------------4---------------------|
D-----------------------------------------------------|
A-----------------------------------------------------|
E-----------------------------------------------------|
                                                 ~~~
e--7p5---------7-------------9b--9brbp7----------------7--9brp7------|
B-----------------7-------7-------—------10-----5--------------------|
G--------------------------------------------------------------------| 
D--------------------------------------------------------------------|
A--------------------------------------------------------------------|
E--------------------------------------------------------------------|
           ~~~                     ~~~~~~~~
e-5-7----------------------------------------------|
B-------5b------------5b--5b--5b-------------------|
G--------------------------------------------------| 
D--------------------------------------------------|
A--------------------------------------------------|
E--------------------------------------------------|
Next solo (3:40)      ~~~           
e-------------------------------------------------------------------------|
B-4b---2-0----4b---2----------5br-----4b---2-0-8b--5b--5-3-5-5b-3-5-3-----|
G----—---------------2------4---------------------------------------------| 
D-------------------------------------------------------------------------|
A-------------------------------------------------------------------------|
E-------------------------------------------------------------------------|
 repeat this throughout the singing part till the next solo
    
            

comments powered by Disqus
↑ Back to top | Guns N Roses Tabs for There Was A Time. Lyrics for acoustic guitar and electric guitar. Tablatures and chords are parodies/interpretations of the original songs. You may use it for private study, scholarship, research or language learning purposes only