>
 >
Street Of Dreams

Street Of Dreams Guitar Tabs

Guns N Roses - Street Of Dreams chords, tabs, tablatures, lyrics

Guitar lessons | Add/correct | Request | Top 50 tabs Artists:  A B C D E F G H I J K L M N O P Q R S T U V W X Y Z 0-9

Street Of Dreams Guitar Tabs – Guns N Roses

CD, Sheet music, Poster

Do you like Street Of Dreams? Share with your friends now
ChordsChords v2Chords v3TabsTabs v2Tabs v3Ukulele
                          Street of Dreams   Guns 'n' Roses

Acoustic guitar

Tune down 1/2 step


                      ^                    ^
                      H        H           W
D#||-------|-------|--3--------L--------|--2----------------|
A#||-------|-------|--3--------L--------|--3----------------|
F#||-------|-------|--0--------L--------|--2----------------|
C#||-------|-------|--0--------L--------|--0----------------|
G#||-------|-------|--2--------L--------|-------------------|
D#||-------|-------|--3--------L--------|-------------------|


  ^                                       ^
  W                   W                   Q    E  S E  S E  S S S S
--0----------------|--0----------------|--3----3--3-3--3-3--3-3-3-3-|
--1----------------|--2----------------|--3----3--3-3--3-3--3-3-3-3-|
--0----------------|--2----------------|--0----0--0-0--0-0--0-0-0-0-|
--2----------------|--2----------------|--0----0--0-0--0-0--0-0-0-0-|
--3----------------|--0----------------|--2----2--2-2--2-2--2-2-2-2-|
-------------------|-------------------|--3----3--3-3--3-3--3-3-3-3-|


  ^                            ^
  Q    E  S E  S E  S S S S    Q    E  S E  S E  S S S S
--1----1--1-1--1-1--1-1-1-1-|--3----3--3-3--3-3--3-3-3-3-|
--1----1--1-1--1-1--1-1-1-1-|--3----3--3-3--3-3--3-3-3-3-|
--2----2--2-2--2-2--2-2-2-2-|--0----0--0-0--0-0--0-0-0-0-|
--3----3--3-3--3-3--3-3-3-3-|--0----0--0-0--0-0--0-0-0-0-|
--3----3--3-3--3-3--3-3-3-3-|--2----2--2-2--2-2--2-2-2-2-|
--1----1--1-1--1-1--1-1-1-1-|--3----3--3-3--3-3--3-3-3-3-|


  ^
  Q    E  S E  S E  S S S S                   H        Q    E  E
--1----1--1-1--1-1--1-1-1-1-|----|----|----|-----------------------|
--1----1--1-1--1-1--1-1-1-1-|----|----|----|-----------------------|
--2----2--2-2--2-2--2-2-2-2-|----|----|----|-----------------------|
--3----3--3-3--3-3--3-3-3-3-|----|----|----|-----------------------|
--3----3--3-3--3-3--3-3-3-3-|----|----|----|-------------------5s--|
--1----1--1-1--1-1--1-1-1-1-|----|----|----|-----------------------|


   W
--------------------|---------|---------|---------|---------|
--------------------|---------|---------|---------|---------|
--------------------|---------|---------|---------|---------|
--------------------|---------|---------|---------|---------|
--10----------------|---------|---------|---------|---------|
--------------------|---------|---------|---------|---------|


  H        E  S S S E.     Q.                  Q    E.  H        S
--------------5---5-8---|--7------|---------|-------3--------------|---------|
----------------5-------|---------|---------|-----------3--------L-|---------|
------------------------|---------|---------|----------------------|---------|
------------------------|---------|---------|----------------------|---------|
------------------------|---------|---------|----------------------|---------|
------------------------|---------|---------|----------------------|---------|


                                                          ^
                                                          H        H
---------|---------|---------|---------|-------|-------|--3--------L--------|
---------|---------|---------|---------|-------|-------|--3--------L--------|
---------|---------|---------|---------|-------|-------|--0--------L--------|
---------|---------|---------|---------|-------|-------|--0--------L--------|
---------|---------|---------|---------|-------|-------|--2--------L--------|
---------|---------|---------|---------|-------|-------|--3--------L--------|


  ^                   ^
  W                   W                   W
--2----------------|--0----------------|--0----------------|-------------------|
--3----------------|--1----------------|--2----------------|-------------------|
--2----------------|--0----------------|--2----------------|-------------------|
--0----------------|--2----------------|--2----------------|-------------------|
-------------------|--3----------------|--0----------------|-------------------|
-------------------|-------------------|-------------------|-------------------|


***********************************************************************************
###################################################################################
***********************************************************************************


Rhythm Guitar

D#||-------|-------|-------|-------|-------|-------------------------|
A#||-------|-------|-------|-------|-------|-------------------------|
F#||-------|-------|-------|-------|-------|-----------------------x-|
C#||-------|-------|-------|-------|-------|-----------------------x-|
G#||-------|-------|-------|-------|-------|-----------------------x-|
D#||-------|-------|-------|-------|-------|-------------------------|


                          ^
  H        Q    E  S S    H        Q    E  S S    H        Q    E  S S
-----------------------|-----------------------|-----------------------|
-----------------------|-----------------------|-----------------------|
-----------------------|-----------------------|-----------------------|
--5--------L----L--x---|--3--------L----L--x---|--5--------L----L--x---|
--5--------L----L--x-x-|--3--------L----L--x-x-|--5--------L----L--x-x-|
--3--------L----L--x-x-|--1--------L----L--x-x-|--3--------L----L--x-x-|


  ^
  H        Q    E  S S    W
-----------------------|-------------------|----|----|----|----|----|----|----|
-----------------------|-------------------|----|----|----|----|----|----|----|
-----------------------|-------------------|----|----|----|----|----|----|----|
--3--------L----L--x---|--5----------------|----|----|----|----|----|----|----|
--3--------L----L--x-x-|--5----------------|----|----|----|----|----|----|----|
--1--------L----L--x-x-|--3----------------|----|----|----|----|----|----|----|


                                          PM PM      PM PM
                                          E  E  Q    E  E  Q
----|----|----|----|----|----|----|----|------------------------|
----|----|----|----|----|----|----|----|------------------------|
----|----|----|----|----|----|----|----|------------------------|
----|----|----|----|----|----|----|----|--------5----------5----|
----|----|----|----|----|----|----|----|--------5----------5----|
----|----|----|----|----|----|----|----|--3--3--3----3--3--3----|


  PM PM      PM PM         PM PM      PM PM         PM PM      PM PM
  E  E  Q    E  E  Q       E  E  Q    E  E  Q       E  E  Q    E  E  Q
------------------------|------------------------|------------------------|
------------------------|------------------------|------------------------|
------------------------|------------------------|------------------------|
--------7----------7----|--------5----------5----|--------7----------7----|
--------7----------7----|--------5----------5----|--------7----------7----|
--5--5--5----5--5--5----|--3--3--3----3--3--3----|--5--5--5----5--5--5----|


           PM PM PM PM    PM PM      PM PM
  H        E  E  E  E     E  E  Q    E  E  Q       W
-----------------------|------------------------|-------------------|
-----------------------|------------------------|-------------------|
-----------------------|------------------------|--5----------------|
--5--------------------|--------7----------7----|--5----------------|
--5--------------------|--------7----------7----|--3----------------|
--3--------3--3--3--3--|--5--5--5----5--5--5----|-------------------|


  ^
  W
-------------------|-----------|-------------------|-------------------|
-------------------|-----------|-------------------|-------------------|
-------------------|-----------|-------------------|-------------------|
--3----------------|-----------|-------------------|-------------------|
--3----------------|-----------|-------------------|-------------------|
--1----------------|-----------|-------------------|-------------------|

  PM PM      PM PM         PM PM
  E  E  Q    E  E  Q       E  E  E  S S E  S S S E.     H        H
------------------------|----------------------------|--------------------|
------------------------|----------------------------|--------------------|
------------------------|------------------2-4-4-0---|--5--------7--------|
--------5----------7----|--------2-------------------|--5--------7--------|
--3--3--3----5--5--5----|--------2-------------------|--3--------5--------|
------------------------|--0--0--0--x-x-x--------L---|--------------------|


  Q.     H        E     H        H           W
---------------------|--------------------|-------------------|
---------------------|--------------------|-------------------|
---------------------|--5--------7--------|-------------------|
--2------7--------L--|--5--------7--------|--2----------------|
--2------7--------L--|--3--------5--------|--2----------------|
--0------5--------L--|--------------------|--0----------------|


                      ^                   ^                   ^
  W                   W                   W                   W
-------------------|--3----------------|--1----------------|--3----------------|
-------------------|--3----------------|--1----------------|--3----------------|
--5----------------|--4----------------|--2----------------|--4----------------|
--5----------------|--5----------------|--3----------------|--5----------------|
--3----------------|--5----------------|--3----------------|--5----------------|
-------------------|--3----------------|--1----------------|--3----------------|


  ^                   ^                   ^                   ^
  W                   W                   W                   W
--1----------------|--3----------------|--1----------------|--3----------------|
--1----------------|--3----------------|--1----------------|--3----------------|
--2----------------|--4----------------|--2----------------|--4----------------|
--3----------------|--5----------------|--3----------------|--5----------------|
--3----------------|--5----------------|--3----------------|--5----------------|
--1----------------|--3----------------|--1----------------|--3----------------|


  ^
  W                   H        H           H        H
--1----------------|--------------------|--------------------|
--1----------------|--------------------|--------------------|
--2----------------|--8--------7--------|--5--------3--------|
--3----------------|--8--------7--------|--5--------3--------|
--3----------------|--6--------5--------|--3--------1--------|
--1----------------|--------------------|--------------------|


  H        H           W                   H        H
--------------------|-------------------|--------------------|
--------------------|-------------------|--------------------|
--------------------|-------------------|--8--------7--------|
--5--------3--------|--2----------------|--8--------7--------|
--5--------3--------|--2----------------|--6--------5--------|
--3--------1--------|--0----------------|--------------------|


  H        H           H        H           E  E   E   E    E   E   E   E
--------------------|--------------------|----------------/12------10------|
--------------------|--------------------|---------------------13------13--|
--5--------3--------|--------------------|--7--7--/9-----------------------|
--5--------3--------|--5--------3--------|--7--7------10-------------------|
--3--------1--------|--5--------3--------|--5--5---------------------------|
--------------------|--3--------1--------|---------------------------------|


  PM PM      PM PM         PM PM                        PM PM      PM PM
  E  E  Q    E  E  Q       E  E  E  S S E  S S S E.     E  E  Q    E  E  Q
------------------------|----------------------------|------------------------|
------------------------|----------------------------|------------------------|
------------------------|------------------2-4-4-2---|------------------------|
--------5----------7----|--------2-------------------|--------5----------7----|
--3--3--3----5--5--5----|--------2-------------------|--3--3--3----5--5--5----|
------------------------|--0--0--0--x-x-x--------L---|------------------------|


  PM PM
  E  E  E  E  E  E  E  E     E  E  E  E  E  E  E  E
--------------------------|--------------------------|
--------------------------|--------------------------|
--------------------------|--------5--L--------7--L--|
--------2--7--L-----------|--------5--L--------7--L--|
--------2--7--------------|--3--3--3--L--5--5--5--L--|
--0--0--0--5-----5--5--L--|--------------------------|


  E  E  E  E  E  E  E  E     E  E  E  E  E  E  E  E     E  E  E  H        E
--------------------------|--------------------------|-----------------------|
--------------------------|--------------------------|-----------------------|
--------------------------|--------5--L--------7--L--|-----------------------|
--------5--L--------5--L--|--------5--L--------7--L--|-----7--L--7--------L--|
--------5--L--------5--L--|--3--3--3--L--5--5--5--L--|-----7--L--7--------L--|
--3--3--3--L--3--3--3--L--|--------------------------|--5--5--x--5--------L--|


  W                   W                   W                   W
-------------------|-------------------|-------------------|-------------------|
-------------------|-------------------|-------------------|-------------------|
--5----------------|--7----------------|-------------------|-------------------|
--5----------------|--7----------------|--5----------------|--7----------------|
--3----------------|--5----------------|--5----------------|--7----------------|
-------------------|-------------------|--3----------------|--5----------------|


  H        Q    Q        W
----------------------|-------------------|-------------------|
----------------------|-------------------|-------------------|
--5--------L----Ls----|--6----------------|-------------------|
----------------------|-------------------|-------------------|
----------------------|-------------------|-------------------|
----------------------|-------------------|-------------------|


                      H        Q    Q         W
-------------------|----------------------|--------------------|
-------------------|--1--------L----Ls----|--15----------------|
-------------------|----------------------|--------------------|
-------------------|----------------------|--------------------|
-------------------|----------------------|--------------------|
-------------------|----------------------|--------------------|


  PM PM      PM PM         PM PM                    PM PM      PM PM
  E  E  Q    E  E  Q       E  E  Q    E  E  Q       E  E  Q    E  E  Q
------------------------|------------------------|------------------------|
------------------------|------------------------|------------------------|
------------------------|------------------------|------------------------|
--------5----------7----|--------2----------2----|--------5----------7----|
--3--3--3----5--5--5----|--------2----------2----|--3--3--3----5--5--5----|
------------------------|--0--0--0----0--0--0----|------------------------|


  PM PM                    PM PM      PM PM         PM PM
  E  E  Q    E  E  Q       E  E  Q    E  E  Q       E  E  Q    E  E  Q
------------------------|------------------------|------------------------|
------------------------|------------------------|------------------------|
------------------------|------------------------|------------------------|
--------2----------2----|--------5----------7----|--------2----------2----|
--------2----------2----|--3--3--3----5--5--5----|--------2----------2----|
--0--0--0----0--0--0----|------------------------|--0--0--0----0--0--0----|


  PM PM      PM PM         PM PM                    PM PM      PM PM
  E  E  Q    E  E  Q       E  E  Q    E  E  Q       E  E  Q    E  E  Q
------------------------|------------------------|------------------------|
------------------------|------------------------|------------------------|
------------------------|------------------------|------------------------|
--------5----------7----|--------2----------2----|--------5----------7----|
--3--3--3----5--5--5----|--------2----------2----|--3--3--3----5--5--5----|
------------------------|--0--0--0----0--0--0----|------------------------|


  PM PM                    PM PM      PM PM         PM PM
  E  E  Q    E  E  Q       E  E  Q    E  E  Q       E  E  Q    E  E  Q
------------------------|------------------------|------------------------|
------------------------|------------------------|------------------------|
------------------------|------------------------|------------------------|
--------2----------2----|--------5----------7----|--------2----------2----|
--------2----------2----|--3--3--3----5--5--5----|--------2----------2----|
--0--0--0----0--0--0----|------------------------|--0--0--0----0--0--0----|


  PM PM      PM PM         PM PM                    PM PM      PM PM
  E  E  Q    E  E  Q       E  E  Q    E  E  Q       E  E  Q    E  E  Q
------------------------|------------------------|------------------------|
------------------------|------------------------|------------------------|
------------------------|------------------------|------------------------|
--------5----------7----|--------2----------2----|--------5----------7----|
--3--3--3----5--5--5----|--------2----------2----|--3--3--3----5--5--5----|
------------------------|--0--0--0----0--0--0----|------------------------|


  Q    E  H        E     W
----------------------|-------------------||
----------------------|-------------------||
----------------------|-------------------||
--2-------7--------L--|--7----------------||
--2-------7--------L--|--7----------------||
--0----0--5--------L--|--5----------------||

**********************************************************************************
##################################################################################
**********************************************************************************

Lead Guitar


  H        Q     X  X  X  X  X  X  X  X  X  X  X  X  X  X  X X
---------------------------------------------------------------|
---------------------------------------------------------------|
---------------------------------------------------------------|
---------------------------------------------------------------|
---------------------------------------------------------------|
----------------24-23-22-21-20-19-18-17-16-15-14-13-12-11-10-9-|


  H        Q    E  S S    H        E  S S E  E     H        Q    E  S S
-----------------------|------------------------|-----------------------|
-----------------------|------------------------|-----------------------|
-----------------------|------------------------|-----------------------|
--5--------L----L--x---|--3--------L--3-2-3-----|--5--------L----L--x---|
--5--------L----L--x-x-|--3--------L------L--3--|--5--------L----L--x-x-|
--3--------L----L--x-x-|--1--------L---------L--|--3--------L----L--x-x-|


  H        E  S S E  E     Q    E  E  E  E  E  E
------------------------|-------------------------|-----|-----|-----|-----|
------------------------|-------------------------|-----|-----|-----|-----|
------------------------|-------------9--9--------|-----|-----|-----|-----|
--3--------L--3-2-3-----|--7----7--x--9--9--------|-----|-----|-----|-----|
--3--------L------L--3--|--7----7--x--7--7--------|-----|-----|-----|-----|
--1--------L---------L--|--5----5--x--------------|-----|-----|-----|-----|


                                Q     Q      E   Q     S   S
-----|-----|-----|-----|-----|-------------------------------|
-----|-----|-----|-----|-----|-------15b----15--15----13p-12-|
-----|-----|-----|-----|-----|-------------------------------|
-----|-----|-----|-----|-----|-------------------------------|
-----|-----|-----|-----|-----|-------------------------------|
-----|-----|-----|-----|-----|-------------------------------|


                        |--|   3       3   3
  E   S  S  Q     T  T  S  E   E   E   E   T    E   E   Q.         E   E  E
---------------------------------------------|-------------------------------|
-----13-12-13----12-13-12--------------------|-----13------------------------|
--------------------------14--12--14--14b--L-|--L------14brb------14--12--x--|
---------------------------------------------|-------------------------------|
---------------------------------------------|-------------------------------|
---------------------------------------------|-------------------------------|


                                                           |---3---|
   S  H        E.  S   E    S     E  E   E   S  E   E.     E   E   E
------------------------------|---------------------------------------|
------------------------------|-------------------------------15--17--|
--12---------------9s-10s--14-|---L--x--12-----14--14br---12----------|
---x-15--------L--------------|---L---------12------------------------|
------------------------------|---------------------------------------|
------------------------------|---------------------------------------|


                                            |---3---|   3   3   3     3 3
   S.  H.           E  T    E   E    E      E   E   E   E   E   Q     T T
-------------------------|------------------------------------------------|
--17b~-L------------x--L-|-----13b--13pbr--12--13--12---------------------|
--------------------x--L-|--x--------------------------14--12--14b----L-L-|
-------------------------|------------------------------------------------|
-------------------------|------------------------------------------------|
-------------------------|------------------------------------------------|


  E   E   E      Q     E   Q
--------------------------------|
-----13-------------------------|
--L------14pbr--12----12--------|
--------------------------14----|
--------------------------------|
--------------------------------|


   E   E   T  T  T  T  T  E.     T  T  T  T  T  Q
-------------------------------------------------------|
--15b--L--15-14-12-------17b~---17-15-14-------18b~----|
-------------------15-14-----------------16-14---------|
-------------------------------------------------------|
-------------------------------------------------------|
-------------------------------------------------------|


       |---3---|       |---3---|   |---3---|
  E    E   E   E   E   S   S   S   E   E   E   E
----------15--17--18--17h-18p-17h-----17--18--20--|
-----/18--------------------------18--------------|
--------------------------------------------------|
--------------------------------------------------|
--------------------------------------------------|
--------------------------------------------------|


                     |---3---|      3                   |---3---|   3   3
   Q.       Q.       E   E   E      E    Q.         E   E   E   E   E   E
--20b------22b------22--20--18--|--20b--20pbr------18--22--18--17--15--17--|
--------------------------------|------------------------------------------|
--------------------------------|------------------------------------------|
--------------------------------|------------------------------------------|
--------------------------------|------------------------------------------|
--------------------------------|------------------------------------------|


                               |---3---|
   Q      Q        E    E      E   E   E      E   Q     E  E     E    E    E
--17b----17pb~----------------------------|-----------------------------------|
------------------------------------------|-----------------------------------|
------------------14b--14pbr--12------12--|--12--12---------------------------|
----------------------------------12------|------------12--Lb--(12)---Lb--12--|
------------------------------------------|-----------------------------------|
------------------------------------------|-----------------------------------|


  H         T  T  T  T  T  T  T  T T  T  T T  T  T  T  T
-----------13-11-10--------------------------------------|
--------------------13-11-10-----------------------------|
-----------------------------12-10-9---------------------|
--L----------------------------------12-10-9-------------|
---------------------------------------------13-11-10----|
------------------------------------------------------13-|


   S E.      E   E    E   E   E   E
--------------------/19------17------|-----|-----|-----|-----|-----|-----|-----|
--10-Lbr-----------------20------20--|-----|-----|-----|-----|-----|-----|-----|
-----------/16-----------------------|-----|-----|-----|-----|-----|-----|-----|
----------------17-------------------|-----|-----|-----|-----|-----|-----|-----|
-------------------------------------|-----|-----|-----|-----|-----|-----|-----|
-------------------------------------|-----|-----|-----|-----|-----|-----|-----|


                                            H        E  E  E  E
-----|-----|-----|-----|-----|-----|-----|-----------------------|
-----|-----|-----|-----|-----|-----|-----|--------------8--7--5--|
-----|-----|-----|-----|-----|-----|-----|--------------7--7--7--|
-----|-----|-----|-----|-----|-----|-----|-----------------------|
-----|-----|-----|-----|-----|-----|-----|-----------------------|
-----|-----|-----|-----|-----|-----|-----|-----------------------|


  Q    E  Q    E   E  E     W                          W
-------------------------|-------------------|-----|--------------------|
-------7--5----3--/7--5--|--3----------------|-----|--15----------------|
-------7--5----4--/7--5--|--4----------------|-----|--------------------|
-------------------------|-------------------|-----|--------------------|
-------------------------|-------------------|-----|--------------------|
-------------------------|-------------------|-----|--------------------|


   H         E.     S  S  S  S  S                H         H
--15--------14br---12----12-14----|-----|-----|---------------------|
----------------------15-------15-|-----|-----|-----------15--------|
----------------------------------|-----|-----|---------------------|
----------------------------------|-----|-----|---------------------|
----------------------------------|-----|-----|---------------------|
----------------------------------|-----|-----|---------------------|


   E.     S  Q    E   E    E     E      H         H
--14br---12-------------------------|----------------------|
------------12-------15b--15br--12--|--15--------17--------|
------------------------------------|----------------------|
------------------------------------|----------------------|
------------------------------------|----------------------|
------------------------------------|----------------------|


  E  E  E  S Q    S  E      E      Q      E    Q.      E    E
--------------------17pbr--15--|-------------------------------|
------------------L------------|--15b----15b--15------15b--12--|
-------------------------------|-------------------------------|
-------------------------------|-------------------------------|
-------------------------------|-------------------------------|
-------------------------------|-------------------------------|


  H         S    E   E.   E      Q      E    Q.      E    E
-----------------------------|-------------------------------|
--L--------15br-12-----------|--15b----15b--15------15b--12--|
--------------------14---12--|-------------------------------|
-----------------------------|-------------------------------|
-----------------------------|-------------------------------|
-----------------------------|-------------------------------|


      <
  E   Q.       E      S  E.   E      Q      E    Q.       E    E
-----17b------17pbr--15-17---15--|--------------------------------|
---------------------------------|--15b----15b--15b------15b--12--|
---------------------------------|--------------------------------|
---------------------------------|--------------------------------|
---------------------------------|--------------------------------|
---------------------------------|--------------------------------|


                                                                  <
  Q     S  S  Q     S  S  S  S  S  S     Q      E    Q.      E    E
-------------------------------------|---------------------------15b--|
--L----15-12-------------------12-15-|--15b----15b--15------15b-------|
-------------14----12----12-14-------|--------------------------------|
----------------------14-------------|--------------------------------|
-------------------------------------|--------------------------------|
-------------------------------------|--------------------------------|


  E   S  S  S  S  H        E      W
--L--15-12--------------------|--------------------||
-----------15-12--------------|--------------------||
-----------------14--------L--|--14----------------||
------------------------------|--------------------||
------------------------------|--------------------||
------------------------------|--------------------||


Duration Legend
---------------
W - whole
H - half
Q - quarter
E - 8th
S - 16th
T - 32nd
X - 64th
. - note dotted
|-n-|  - n-tuplets


Tablature Legend
----------------
L - tied note
x - dead note
g - grace note
(n) - ghost note
> - accentuded note
NH - natural harmonic
AH - artificial harmonic
TH - tapped harmonic
SH - semi harmonic
PH - pitch harmonic
h - hammer on
p - pull off
b - bend
br - bendRelease
pb - preBend
pbr - preBendRelease
brb - bendReleaseBend
\n/ - tremolo bar dip
\n - tremolo bar dive
-/n - tremolo bar Release up
/n\ - tremolo bar inverted dip
/n - tremolo bar return
-\n - tremolo bar Release down
S - shift slide
s - legato slide
/ -  slide into from below or out of upwards
\ -  slide into from above or out of downwards
~ - vibrato
W - wide vibrato
tr - trill
TP - tremolo picking
T - tapping
S - slap
P - pop
< - fade in
^ - brush up
v - brush down

the source guitar pro tab***





Comments


Popular Guns N Roses tabs & chords
Civil War Bass Tabs
Don Cry Bass Tabs
I Used To Love Her Chords
Knocking On Heaven's Door Chords
Mr Brownstone Drum Tabs
I Used To Love Her 1 Tabs
Knocking On Heavens Door (Solo Ver 4) Tabs
Rocket Queen 1 Tabs
Rocket Queen 2 Tabs
November Rain Ukulele


Song lyrics



↑ Back to top | Tablatures and chords are parodies/interpretations of the original songs. You may use it for private study, scholarship, research or language learning purposes only
© 2014 AZChords.com Contact us | Privacy policy | DMCA | Add/correct tabs | Request tabs | Top 50 tabs