» » »

Street Of Dreams Tabs (ver.2)

Artists:  A B C D E F G H I J K L M N O P Q R S T U V W X Y Z # 

Street Of Dreams Tabs (ver.2)

Guns N Roses
Rating:
0/5 (0 votes)

Hard to play? Try these video lessons and learn fast.
                This is my first TAB ever. It was hard to figure out, right now I working on the second
more harder. Please rate this tab, comments and corrections are welcome!


b=bending
Listen to the Solo and figure out how to bend it, sometimes it's bending up&down,
also a vibrato comes in addition.

Solo
(Start: 2:16)

E-------------------------------------------------------------------|
B-------------------------------------------------------------------|
G-18b-18-16--16p15h16-15h16-15------------16-15---------------------|
D-------------------------------18-16-18b-------18b--18-16-18-16-14-|
A-------------------------------------------------------------------|
E-------------------------------------------------------------------|


E-----------------------------------------------------------------------------|
B-------------------------------------------16-16b/14-------------------------|
G----------------------------15-------15-18-----------16/18-16-15h16-15-------|
D-/13-13h14-16/18--16-16--18-------18-----------------------------------16----|
A-------------------------------16-----------------------------------------16-|
E-----------------------------------------------------------------------------|


                        2:39   (very fast part)
E-----------------------------------------------------------------|
B-----------------------15-14-12----------17-15-14--14-15-17/19\--|
G------------16----13-----------14-13-11----------16--------------|
D-14/15-16-15p13----13--------------------------------------------|
A-----------------------------------------------------------------|
E-----------------------------------------------------------------|


                                                            2:49
E------16-17-16-h17p-16--16-17-19-21-22b-21-19--19-h21--------21-------------------|
B-15/19----------------19---------------------22------22----22--22-21-19-21-21b----|
G----------------------------------------------------------------------------------|
D----------------------------------------------------------------------------------|
A----------------------------------------------------------------------------------|
E----------------------------------------------------------------------------------|


I'm struggling right now to find the correct octave following this part here, it seems 
around the beginning tone...
to be continued...

If somebody has improvements to this please comment!

Best regards,
Ben
            
Hard to play? Try these video lessons and learn fast. | Correct




comments powered by Disqus
↑ Back to top | Tablatures and chords are parodies/interpretations of the original songs. You may use it for private study, scholarship, research or language learning purposes only