» » »

Guns N Roses, Mr Brownstone Bass tabs (ver.3)

Artists:  A B C D E F G H I J K L M N O P Q R S T U V W X Y Z # 

Mr Brownstone Bass tabs (ver.3)

Guns N Roses Tabs
 Rating:
4/5 (4 votes)
Mr Brownstone lessons Tabs too difficult? Try these video lessons and learn fast
                Intro
|-------------------------------------------------|
|-------------------------------------------------|
|----7------5------7--------5----0----2-----------|
|------------------------------------------3----0-|

|-----------------------------------------------------------------------|
|-----------------------------------------------------------------------|2x
|---------------2p0---------------------------0------5---4---2----------|
|---0---3---4---------0---3---4---0---3---4----------------------3---0--|


Verso 1

|-------------------------------------------------|
|-------------------------------------------------|
|-------------------0----------0---0---0----------|2x
|---0---0---0---3--------------------------3---0--|

|-----------------------------------------------------------------------|
|-----------------------------------------------------------------------|2x
|---------------2p0---------------------------0------5---4---2----------|
|---0---3---4---------0---3---4---0---3---4----------------------3---0--|

Verso 2

|-------------------------------------------------|
|-------------------------------------------------|
|-------------------0----------0---0---0----------|2x
|---0---0---0---3--------------------------3---0--|

1° refrão

|---------------------------------------------------------|
|-------------------------------------------1h2-----------|
|---------------1h2-------0h1---3---1---3---------3---0---|
|---3---1---3---------3-----------------------------------|

|-----------------------------------------------|
|---------------3h4----------------------0h2----|
|---5---3---5----------------------0h2----------|
|----------------------2---3---4----------------|

|--------------------------------------------------------------|
|--------------------------------------------------------------|
|---7---7---7---7---7-------5h7-------7---7---7---7-------5h7--|
|-----------------------7---------0-------------------7--------|

|------------------------------------------------------------------|
|------------------------------------------------------------------|
|---7---7---7---7---7-------5h7------7---5---4---2-------0---------|
|-----------------------7----------------------------3-------3---0-|

2° refrão

|--------------------------------------------------------|
|----------------1---------------------------------------|3X
|----2---0---2-------2--------0-------0---3h4---0--------|
|-------------------------3--------3-----------------0---|

|-------------------------------------------------------------|
|----------------1--------------------------------------------|
|----2---0---2-------2--------7---5---4---2-------0-----------|
|-------------------------3-------------------3-------3---0---|

 1° Refrão

|---------------------------------------------------------|
|-------------------------------------------1h2-----------|
|---------------1h2-------0h1---3---1---3---------3---0---|
|---3---1---3---------3-----------------------------------|

|-----------------------------------------------|
|---------------3h4----------------------0h2----|
|---5---3---5----------------------0h2----------|
|----------------------2---3---4----------------|

|--------------------------------------------------------------|
|--------------------------------------------------------------|
|---7---7---7---7---7-------5h7-------7---7---7---7-------5h7--|
|-----------------------7---------0-------------------7--------|

|------------------------------------------------------------------|
|------------------------------------------------------------------|
|---7---7---7---7---7-------5h7------7---5---4---2-------0---------|
|-----------------------7----------------------------3-------3---0-|

Solo

|-------------------------------------------------------|
|-------------------------------------------------------|
|----------------2-----------------------0--------------|
|----2---2---2-------2-------0---0---0-------0----------|

|-------------------------------------------------------|
|----------------2-----------------------0---0---0h2----|
|----2---2---2-------2-------0---0---0------------------|
|-------------------------------------------------------|

|--------------------------------------------------|
|--------------------------------------------------|
|----------------2------------------------0--------|
|----2---2---2-------2--------0---0---0-------0----|

|-------------------------------------------------------------------|
|-------------------------------------------------------------------|
|----------------2------------7---7---7---5---5---5-----------------|
|----2---2---2-------2--------------------------------7------5---3\-|

|-----------------------------------------------------------|
|-------------------------------------------1h2-------------|
|---------------1h2-------0h1---3---1---3---------3---1---3-|
|---3---1---3---------3-------------------------------------|

|-----------------------------------------------|
|---------------3h4---------------------0---5\--|
|---5---3---5---------5-----5---4---2-----------|
|-----------------------------------------------|

|-----------------------|
|-----------------------|
|-----------------------|
|-----------------3\----|

|----------------------------------------------------------------------|
|----------------------------------------------------------------------|2x
|--------------2p0---------------------------0------5---4---2----------|
|--0---3---4---------0---3---4---0---3---4----------------------3---0--|

verse
|---------------------------------------------------|
|---------------------------------------------------|
|-------------------0----------0---0---0------------|
|----0---0---0---3--------------------------3---0---|

2° refrão

|--------------------------------------------------------|
|----------------1---------------------------------------|3X
|----2---0---2-------2--------0-------0---3h4---0--------|
|-------------------------3--------3-----------------0---|

|-------------------------------------------------------------|
|----------------1--------------------------------------------|
|----2---0---2-------2--------7---5---4---2-------0-----------|
|-------------------------3-------------------3-------3---0---|
                                                       
Refão

|---------------------------------------------------------|
|-------------------------------------------1h2-----------|
|---------------1h2-------0h1---3---1---3---------3---0---|
|---3---1---3---------3-----------------------------------|

|-----------------------------------------------|
|---------------3h4----------------------0h2----|
|---5---3---5----------------------0h2----------|
|----------------------2---3---4----------------|

|--------------------------------------------------------------|
|--------------------------------------------------------------|
|---7---7---7---7---7-------5h7-------7---7---7---7-------5h7--|
|-----------------------7---------0-------------------7--------|

|------------------------------------------------------------------|
|------------------------------------------------------------------|
|---7---7---7---7---7-------5h7------7---5---4---2-------0---------|
|-----------------------7----------------------------3-------3---0-|

|-----------------------------------------------------------------------|
|-----------------------------------------------------------------------|2x
|--------------2p0----------------------------0-----5---4---2-----------|
|---0---3---4---------0---3---4---0---3---4----------------------3---0--|

final

|---------------------------------------------------------------------------|
|---------------------------------------------------------------------------|
|------------------------------------------------------------------------0--|
|----0--------------------0---------------------0-------------------3-------|

|-------------------------------------|
|-------------------------------------|
|----0--------------------0-----------|
|-------------------------------------|

|------7p6p4---2---0----------------------|
|----------------------2p0----------------|
|----------------------------2p0----------|
|----------------------------------3---0--|

|-----------------------------------------------------------------------|
|-----------------------------------------------------------------------|
|-----------------------------------------------------------------------|
|----(0)----------------------(0)-----------------------(0)-------------|
            
Submit corrections

comments powered by Disqus
↑ Back to top | Guns N Roses Bass for Mr Brownstone. Lyrics for acoustic guitar and electric guitar. Tablatures and chords are parodies/interpretations of the original songs. You may use it for private study, scholarship, research or language learning purposes only