» » »

Guns N Roses, Mr Brownstone Bass tabs (ver.2)

Artists:  A B C D E F G H I J K L M N O P Q R S T U V W X Y Z # 

Mr Brownstone Bass tabs (ver.2)

Guns N Roses Tabs
 Rating:
4/5 (4 votes)
Mr Brownstone lessons Tabs too difficult? Try these video lessons and learn fast
                Mr. Brownstone - Guns N' Roses



Intro
-----------------------|
-----------------------|
--7--5--7--5--0--2-----|
--------------------3--|

Riff 1
-------------------------------------------------|
-----------------------------------------------2-|
---------2p0----------------0---5--4--2----------|
--0h3h4-------0h3h4--0h3h4---------------3--0----|

-------------------------------------------------|
--------------------------------------------2p0--|
---------2p0----------------0---5--4--2----------|
--0h3h4-------0h3h4--0h3h4---------------3-------|

Riff 2
--------------------------------|
--------------------------------|  X2
---------------0--0--0--0-------|
---0--0--0--3--------------3--0-|

Riff 1
-------------------------------------------------|
-----------------------------------------------2-|
---------2p0----------------0---5--4--2----------|
--0h3h4-------0h3h4--0h3h4---------------3--0----|

-------------------------------------------------|
--------------------------------------------2p0--|
---------2p0----------------0---5--4--2----------|
--0h3h4-------0h3h4--0h3h4---------------3-------|

Riff 2
--------------------------------|
--------------------------------|  X2
---------------0--0--0--0-------|
---0--0--0--3--------------3--0-|

Chorus/solo2
------------------------------------------------|
------------------------1h2------------3h4------|
---------1h2-----3-1-3-------3--5-3-5-------5---|
--3-1-3-------3---------------------------------|

Bridge 1
--------------------|
--------------------|
--5------------5h7--|
-----0-3-4-5h7------|

Riff 3
--------------------------|
--------------------------|  X2
-----7-7-7-7-----5h7------|
--0-----------7-------0---|

Bridge 2
----------------------------------------|
----------------------------------------|
-----7-7-7-7-----5h7--7-5-4-2-----------|
--0-----------7----------------3h5p3-0--|

Riff 4
--------------------------------|
--------------------------------| X3
---------5-6------------3-4-----|
--7-5-7-------7--5-3-5------5---|

Riff 4- chorus
-----------------------|
-----------------5-3---|
--------5-6------------|
--7-5-7----5-3-5-------|

Chorus/solo2
------------------------------------------------|
------------------------1h2------------3h4------|
---------1h2-----3-1-3-------3--5-3-5-------5---|
--3-1-3-------3---------------------------------|

Bridge 1
--------------------|
--------------------|
--5------------5h7--|
-----0-3-4-5h7------|

Riff 3
--------------------------|
--------------------------|  X2
-----7-7-7-7-----5h7------|
--0-----------7-------0---|

Bridge2'
-----------------------------------------|
-----------------------------------------|
-----7-7-7-7-----5h7--7-5-4-2------------|
--0-----------7----------------3h5p3-----|(0)

Solo1
----------------------------------------------------------|
--------------------------------------------1-1-1p3-------|
--------3-----------1-----------3----------1--------------|
--3-3-3---3---1-1-1---1---3-3-3---3---1-1-1---------------|

------------------------------------999-777-44-2--|
--------------------------------------------------|
--------3-----------1-----------3-----------------|
--3-3-3---3---1-1-1---1---3-3-3---3---------------|

Chorus/solo2
------------------------------------------------------1---|
------------------------1h2------------3h4-----------1----|
---------1h2-----3-1-3-------3--5-3-5-------5--5-4-2------|
--3-1-3-------3-------------------------------------------|

Riff1
-------------------------------------------------|
-----------------------------------------------2-|
---------2p0----------------0---5--4--2----------|
--0h3h4-------0h3h4--0h3h4---------------3--0----|

-------------------------------------------------|
--------------------------------------------2p0--|
---------2p0----------------0---5--4--2----------|
--0h3h4-------0h3h4--0h3h4---------------3-------|

Riff 2
--------------------------------|
--------------------------------|  X2
---------------0--0--0--0-------|
---0--0--0--3--------------3--0-|

Riff 4
--------------------------------|
--------------------------------| X3
---------5-6------------3-4-----|
--7-5-7-------7--5-3-5------5---|

Bridge 3
-----------------------|
-------------7-5-2-0---|
---------5-6-----------|
--7-5-7----------------|

Chorus/solo2
------------------------------------------------|
------------------------1h2------------3h4------|
---------1h2-----3-1-3-------3--5-3-5-------5---|
--3-1-3-------3---------------------------------|

Bridge 1
--------------------|
--------------------|
--5------------5h7--|
-----0-3-4-5h7------|

Riff 3
---------------------------|
---------------------------|  X2
-----7-7-7-7-----5h7-------|
--0-----------7-------0----|

Bridge 4
---------------------------------------|
---------------------------------------|
-----7-7-7-7-----5h7--7-5-4-2----------|
--0-----------7----------------3h5p3---|

Riff 1
-------------------------------------------------|
-----------------------------------------------2-|  X2
---------2p0----------------0---5--4--2----------|
--0h3h4-------0h3h4--0h3h4---------------3--0----|

outro
-----------------------7p6--------------------|
---------------------------8p6-6-4------------|
-----------------------------------6p4--------|
------0-0-0-3-5-5-5--------------------3-0----|
            
Submit corrections

comments powered by Disqus
↑ Back to top | Guns N Roses Bass for Mr Brownstone. Lyrics for acoustic guitar and electric guitar. Tablatures and chords are parodies/interpretations of the original songs. You may use it for private study, scholarship, research or language learning purposes only