>
 >
Coma 2

Coma 2 Bass Tabs

Guns N Roses - Coma 2 chords, tabs, tablatures, lyrics

Guitar lessons | Add/correct | Request | Top 50 tabs Artists:  A B C D E F G H I J K L M N O P Q R S T U V W X Y Z 0-9

Coma 2 Bass Tabs – Guns N Roses

CD, Sheet music, Poster

Do you like Coma 2? Share with your friends now
Bass TabsBass Tabs v2ChordsChords v2TabsTabs v2Tabs v3UkuleleUkulele v2
Hey all.

Thanks to flash for his guitar pro tab who helped me tabbing.

There you go ^^ :

Note: All is 4/4.

Intro :

rest for 2 measures then :

Gb|-----------------|--------------|
Db|-11-----10----11-|-11-----10----|
Ab|-----0------0----|-----0------0-|  x8
Eb|-----------------|--------------|

Main riff :

Gb|--------------|--------------|--------------|--------------|--------------|
Db|--------------|--------------|--------------|--------------|--------------|
Ab|-4--0--3--0-4-|--4-0-0--3--0-|-4--0--3--0-4-|--7-4-0--3--0-|-4--0--3--0-4-|
Db|--------------|--------------|--------------|--------------|--------------|

Gb|----------------|--------------|----------------|
Db|----------------|--------------|----------------|
Ab|--7-4-0-3-3-2-0-|-4--0--3--0-4-|--3-2-1-0-3-2-1-|
Eb|----------------|--------------|----------------|


" Hey you caught..."

Gb|----------------|---------------|----------------|---------------|
Db|----------------|---------------|----------------|---------------|
Ab|----------------|---------------|----------------|---------------|
Eb|-5-5------------|----------5/12-|-5-5------------|---------------|

Gb|----------------|---------------|----------------|---------------|
Db|----------------|-----------5---|----------------|---------------|
Ab|----------------|---------------|----------------|---------------|
Eb|-3-3------------|---------3---3-|-3-3------------|---------------|

Gb|----------------|---------------|----------------|-------------------|
Db|----------------|---------------|----------------|-------------------|
Ab|----------------|---------------|----------------|-------------------|
Eb|-1-1------------|-------------3-|-1-1---------11-|-1-1-1-1-1-1-1-1-1-|
                                               ( 1-1 )
"Oh, make me..."
Gb|---------------|-------------|------------|--------------|--------------|
Db|---------------|-------------|------------|--------------|--------------|
Ab|-------------6-|--6--6-6-----|----------5-|--5--5-5-5-55-|-5-5----------|
Eb|-4--4--4-4-----|-----------3-|--3--3-3----|--------------|--------------|

Gb|--------------|--------------|--------------|--------------|--------------|-5---5---5---5---|
Db|--------------|--------------|--------------|--------------|--------------|-----------------|
Ab|--------------|-3-3----------|--------------|-3-3----------|-----------33-|---3---3---3---3-|
Eb|--------------|--------------|--------------|--------------|--------------|-----------------|

"Won't ya..."

Gb|--------------|------------|---------------|--------------|--------------|--------------|
Db|--------------|------------|---------------|--------------|--------------|--------------|
Ab|-6--6--6-6----|----------5-|--5--5--5-5----|--------------|--------------|--------------|
Eb|------------6-|--6--6-6----|-------------5-|--5--5-5---55-|-5-5----------|--------------|

Gb|--------------|--------------|--------------|----------------|
Db|--------------|--------------|--------------|----5---5-3-----|
Ab|--------------|--------------|--------------|------------5-3-|
Eb|-3-3----------|--------------|-3-3----------|--3---3---------|

"I could leave..."

Gb|---------------|-------------|----------------|-------------|
Db|---------------|-------------|----------------|-------------|
Ab|-2--2-x-2-2----|-------------|--2--2--2-3-4-5-|--5--5---4-0-|
Eb|-------------2-|--2--2-2-2-x-|----------------|-------0-----|

Gb|-------------|-------------|-------------|---------------|
Db|-------------|-------------|-------------|---------------|
Ab|--0--0-------|-------------|-----------5-|--5-xx-5-4-x-3-|
Eb|-------3-2-0-|--0-x-0--2-3-|--3--3-2-0---|---------------|

Gb|----------------|-----------------|
Db|----------------|-----------------|
Ab|--2-3-2-3-2-3-2-|-3-2-3-2-3-3-0-2-|
Eb|----------------|-----------------|

Main riff :

Gb|--------------|--------------|--------------|--------------|--------------|
Db|--------------|--------------|--------------|--------------|--------------|
Ab|-4--0--3--0-4-|--4-0-0--3--0-|-4--0--3--0-4-|--7-4-0--3--0-|-4--0--3--0-4-|
Db|--------------|--------------|--------------|--------------|--------------|

Gb|----------------|--------------|----------------|
Db|----------------|--------------|----------------|
Ab|--7-4-0-3-3-2-0-|-4--0--3--0-4-|--4-0-0-3-3-2-1-|
Eb|----------------|--------------|----------------|

Heartbeat:

Gb|--------------|-------------|------------|------------|------------|
Db|--------------|-------------|------------|------------|------------|
Ab|-0-0----------|---------x-3-|------------|--------x-5-|------------|
Db|--------------|-------------|------------|------------|------------|

Gb|------------|------------|------------|------------|---------------|
Db|------------|------------|------------|------------|---------------|
Ab|------------|------------|------------|------------|---------------|
Eb|--------x-3-|------------|--------x-6-|------------|--6-6---6--6-1-|

Slipin' father

Gb|----------------|-------------|--------------|--------------|
Db|----------------|-------------|--------------|--------------|
Ab|----------------|-------3-5-3-|--3-x-3-3-x-3-|--3-xx-3-3--2-|
Eb|--1-1-1-1-1-1-1-|--1--5-------|--------------|--------------|

Gb|----------------|-----------------|
Db|----------------|-----------------|
Ab|--1-2-1-2-1-2-1-|-2-1-2-1-2-2-----|
Eb|----------------|-------------3-0-|

"We're gonna lose him..."

Gb|--------------|-------------|
Db|--------------|-------------|
Ab|-2-----1----2-|--2-----1----| x4
Eb|----0-----0---|----3-0----0-|

Gb|--------------|--------------|--------------|--------------|--------------|
Db|--------------|--------------|--------------|--------------|--------------|
Ab|-4--0--3--0-4-|--4-0-0--3--0-|-4--0--3--0-4-|--7-4-0--3--0-|-4--0--3--0-4-|
Db|--------------|--------------|--------------|--------------|--------------|

Gb|----------------|--------------|----------------|
Db|----------------|--------------|----------------|
Ab|--7-4-0-3-3-2-0-|-4--0--3--0-4-|--4-0-0-3-3-2-1-|
Eb|----------------|--------------|----------------|

"Please, understand me..."

Gb|------------|--------|--------|-----------|----------------|
Db|------------|--------|--------|-----------|----------------|
Ab|-5-5--------|--------|-5-5----|-------x-2-|--2-2-xx-2-2--2-|
Eb|------------|--------|--------|-----------|----------------|

Gb|---------------|--------------|--------------|-----------------|
Db|---------------|--------------|------4---4-5-|-5-5-5-5-5-5-7---|
Ab|--2-2-xx-2-2---|--------------|--------4-----|---------------5-|
Eb|-------------2-|-2-2-xx-2-2-2-|-2-22---------|-----------------|

Gb|-----------------|----------------|-----------------|-----------------|
Db|-----------------|----------------|-----------------|-----------------|
Ab|-5-5-5-5-5-5-x---|----------------|---------------7-|-7-7-7-7-7-7-7-7-|
Eb|---------------0-|--0-0-0-0-0-0-0-|-0-0-0-0-0-0-x---|-----------------|


Gb|---------------|
Db|---------------|
Ab|-7-7-7---------|
Eb|---------------|


"Where are you"

Gb|---------|--------------|--------------|--------------|---------------|
Db|---------|--------------|--------------|--------------|---------------|
Ab|---------|--------------|--------------|--------------|---------------|
Eb|---------|---5-----5----|---5-----5----|---5-----5----|---5---5-2-3-4-|

Gb|--------------|--------------|--------------|----------------|
Db|--------------|--------------|--------------|----------------|
Ab|--------------|--------------|--------------|-----4----------|
Eb|---5-----5----|---5-----5----|---5-----5----|---5---5-7-8-9--|

Gb|--------------|--------------|--------------|--------------|--------------|---------------|
Db|--------------|--------------|--------------|--------------|--------------|---------------|
Ab|--------------|--------------|--------------|--------------|--------------|---------------|
Eb|---5-----5----|---5-----5----|---5-----5----|---5-----5----|---5-----5----|---5---5-2-3-4-|

Gb|--------------|---------------|
Db|--------------|---------------|
Ab|--------------|---------------|
Eb|---5-----5----|---5---5-2-3-4-|

"No one's gonna..."

Gb|--------------|--------------|--------------|--------------|--------------|---------------|
Db|--------------|--------------|--------------|--------------|--------------|---------------|
Ab|--------------|--------------|--------------|--------------|--------------|---------------|
Eb|---5-----5----|---5-----5----|---5-----5----|---5-----5----|---5-----5----|---5---5-2-3-4-|

Gb|--------------|--------------|--------------|--------------|--------------|----------------|
Db|--------------|--------------|--------------|--------------|--------------|---------5-7-7--|
Ab|--------------|--------------|--------------|--------------|--------------|----------------|
Eb|---5-----5----|---5-----5----|---5-----5----|---5-----5----|---5-----5----|---5---5--------|

Gb|--------------|--------------|---------------|
Db|--------------|--------------|---------------|
Ab|--------------|--------------|---------------| x4
Eb|---5-----5----|---5-----5----|---5---5-2-3-4-|

Gb|--------------|--------------|--------------|--------------|--------------|
Db|--------------|--------------|--------------|-7------------|--------------|
Ab|--------------|--------------|--------------|--------------|--------------|
Eb|---5-----5----|---5-----5----|---5-----5----|--------------|--------------|

Gb|-----------------|-----------------|-----------------|-----------------|
Db|-----------------|-----------------|-----------------|-----------------|
Ab|-----------------|-----------------|-----------------|-----------------|
Eb|-5-5-5-5-5-5-5-5-|-5-5-5-5-5-5-5-5-|-5-5-5-5-5-5-5-5-|-5-5-5-5-5-5-5-5-|


Gb|-----------------|--------------|
Db|-11-----10----11-|-11-----10----|
Ab|-----0------0----|-----0------0-|  x6
Eb|-----------------|--------------|

Main riff:

Gb|--------------|--------------|--------------|--------------|--------------|
Db|--------------|--------------|--------------|--------------|--------------|
Ab|-4--0--3--0-4-|--4-0-0--3--0-|-4--0--3--0-4-|--7-4-0--3--0-|-4--0--3--0-4-|
Db|--------------|--------------|--------------|--------------|--------------|

Gb|----------------|--------------|----------------|
Db|----------------|--------------|----------------|
Ab|--7-4-0-3-3-2-0-|-4--0--3--0-4-|--3-2-1-0-------|
Eb|----------------|--------------|----------0-1-2-|

(Impressive :p ) Guitar solo:

Gb|--------------|--------------|--------------|-------------|
Db|--------------|--------------|--------------|-------------|
Ab|--------------|--------------|--------------|-------------|
Eb|-3--3--3-3-3--|-3--3--3-3-3--|-3--3--3-3-3--|-3--3--3-3-5-|

Gb|----------------|-----------------|----------------|-----------------|
Db|----------------|-----------------|----------------|-----------------|
Ab|----------------|-----------------|----------------|-----------------|
Eb|--5-5-5-5-5-5-5-|-5-5-5-5-5-5-5-5-|--5-5-5-5-5-5-5-|-5-5-5-5-5-5-5-3-|


Gb|----------------|-----------------|----------------|-----------------|
Db|----------------|-----------------|----------------|-----------------|
Ab|----------------|-----------------|----------------|-----------------|
Eb|--3-3-3-3-3-3-3-|-3-3-3-3-3-3-3-3-|--3-3-3-3-3-3-3-|-3-3-3-3-3-3-3-1-|


Gb|----------------|-----------------|----------------|-----------------|
Db|----------------|-----------------|----------------|-----------------|
Ab|----------------|-----------------|----------------|---------------3-|
Eb|--1-1-1-1-1-1-1-|-1-1-1-1-1-1-1-1-|--1-1-1-1-1-1-1-|-1-1-1-1-1-1-1---|

Gb|-------------|------------|------------|------------|
Db|-------------|------------|------------|------------|
Ab|--3--3-3-----|----------5-|--5--5-5----|----------3-|
Eb|-----------3-|--3--3-3----|----------5-|--5--5-5----|

Gb|----------------|-----------------|----------------|-----------------|
Db|----------------|-----------------|----------------|-----------------|
Ab|--3-3-3-3-3-3-3-|-3-3-3-3-3-3-3-3-|--3-3-3-3-3-3-3-|-3-3-3-3-3-3-3---|
Eb|----------------|-----------------|----------------|---------------3-|

Gb|----------------|-----------------|----------------|-----------------|
Db|----------------|-----------------|----------------|-----------------|
Ab|----------------|-----------------|----------------|-----------------|
Eb|--3-3-3-3-3-3-3-|-3-3-3-3-3-3-3-3-|--3-3-3-3-3-3-3-|-3-3-3-3-3-3-3-1-|

Gb|--------------|-------------|--------------|--------------|
Db|--------------|-------------|--------------|--------------|
Ab|--------------|-------3-5-3-|--3-33-3-3--3-|--3-33-3-3--2-|
Eb|--1-1-1-1-1-1-|--1--5-------|--------------|--------------|

Gb|----------------|-----------------|
Db|----------------|-----------------|
Ab|--1-2-1-2-1-2-1-|-2-1-2-1-2-2-----|
Eb|----------------|-------------3-0-|

"Bitching"

Gb|--------------|-------------|
Db|--------------|-------------|
Ab|-2-----1----2-|--2-----1----| x4
Eb|----0-----0---|----3-0----0-|

Main riff:

Gb|--------------|--------------|--------------|--------------|--------------|
Db|--------------|--------------|--------------|--------------|--------------|
Ab|-4--0--3--0-4-|--4-0-0--3--0-|-4--0--3--0-4-|--7-4-0--3--0-|-4--0--3--0-4-|
Db|--------------|--------------|--------------|--------------|--------------|

Gb|----------------|--------------|----------------|
Db|----------------|--------------|----------------|
Ab|--7-4-0-3-3-2-0-|-4--0--3--0-4-|--4-0-0-3-3-2-1-|
Eb|----------------|--------------|----------------|

"Ya live your..."

Gb|-----------------|-----------------|-----------------|-----------------|
Db|-----------------|-----------------|-----------------|-----------------|
Ab|-----------------|-----------------|-----------------|-----------------|
Eb|-5-5-5-5-5-5-5-5-|-5-5-5-5-5-5-5-5-|-5-5-5-5-5-5-5-5-|-5-5-5-5-5-5-5-5-|

Gb|-----------------|-----------------|-----------------|-----------------|
Db|-----------------|-----------------|-----------------|-----------------|
Ab|-----------------|-----------------|-----------------|-----------------|
Eb|-3-3-3-3-3-3-3-3-|-3-3-3-3-3-3-3-3-|-3-3-3-3-3-3-3-3-|-3-3-3-3-3-3-3-1-|

"But who am i..."

Gb|----------------|-----------------|---------------|------------|
Db|----------------|-----------------|---------------|------------|
Ab|----------------|-----------3-5-3-|--3-xx-3-3-x-3-|--3--3-4--5-|
Eb|--1-1-1-1-1-1-1-|-1-1-1-0-5-------|---------------|------------|

Gb|------------|----------------|
Db|------------|--------0-2-----|
Ab|--0--4--0-3-|----0-2-----0-2-|
Eb|------------|--3-------------|

"You got a one..."

Gb|---------------|---------------|--------------|--------------|
Db|---------------|---------------|--------------|--------------|
Ab|--2-22-2-3-4-5-|--5-xx-5---4---|--------------|--------------|
Eb|---------------|---------0---5-|--5-x-5-3-2-0-|--0-xx-0--2-3-|

Gb|---------------|------------|----------------|-----------------|
Db|---------------|------------|----------------|-----------------|
Ab|-------------5-|--5--5-4--3-|--2-3-2-3-2-3-2-|-3-2-3-2-3-------|
Eb|--3-xx-3-2-0---|------------|----------------|-----------3-2-0-|

Gb|------------|------------|------------|-----------|-------------|------------|
Db|------------|------------|------------|-----------|-------------|------------|
Ab|------------|----------5-|--5--5-5----|---------3-|--3--3-2-0---|------------|
Eb|--0--0-0--3-|--3--3-3----|----------5-|--5--5-5---|-----------3-|--3--3-2--1-|

Gb|----------------|----------------|--------------|-------------|
Db|----------------|----------------|--------------|-------------|
Ab|----------------|--------------0-|--0-xx-0-0--3-|-3-xx-3-3----|
Eb|--0-1-0-1-0-1-0-|-1-0-1-0-1-3----|--------------|-----------3-|

Gb|---------------|-------------|-------------|--------------|
Db|---------------|-------------|-------------|--------------|
Ab|-------------5-|--5-4-5-5--8-|--8-x-8-8--3-|--3-xx-3-2--1-|
Eb|--3-xx-3-3-x---|-------------|-------------|--------------|

Gb|----------------|-----------------|----------------|
Db|----------------|-----------------|----------------|
Ab|--0-1-0-1-0-1-0-|-1-0-1-0-1-3-3-5-|--5-5-xx-5-5--8-|
Eb|----------------|-----------------|----------------|

Gb|--------------|--------------|--------------|--------------|
Db|--------------|--------------|--------------|--------------|
Ab|--8-xx-8-8----|--------------|--------------|------------8-|
Eb|------------8-|--8-xx-8-8--3-|--3-xx-3-3--6-|--6-xx-6-6----|

Gb|------------|----------------|-----------------|------------|
Db|------------|----------------|-----------------|------------|
Ab|--8--8-8--6-|--5-6-5-6-5-6-5-|-6-5-6-5-6-8-8---|------------|
Eb|------------|----------------|---------------3-|--3--3-3--6-|

Gb|-------------|------------|--------------|--------------|
Db|-------------|------------|--------------|--------------|
Ab|-----------8-|--8--8-8----|------------6-|--6-xx-6-6----|
Eb|--6-x-6-6----|----------8-|--8-xx-8-8----|------------6-|

Gb|--------------|----------------|----------------|--------------|
Db|--------------|----------------|----------------|--------------|
Ab|--------------|----------------|--------------3-|--3-xx-3-3--6-|
Eb|--6-xx-6-5--4-|--3-4-3-4-3-4-3-|-4-3-4-3-4-6----|--------------|

Gb|----------------|--------------|-------------|-------------|
Db|----------------|--------------|-------------|-------------|
Ab|--6-6-x-6-6-x---|--------------|-------------|-----------6-|
Eb|--------------6-|--6-x-6-6-x-1-|--1-x-1-1--4-|--4-x-4-4----|

Gb|--------------|
Db|--------------|
Ab|--6-xx-6-5--4-|
Eb|--------------|

Gb|----------------|----------------|
Db|----------------|----------------|
Ab|--3-4-3-4-3-4-3-|-4-3-4-3-4-3--4-| x2
Eb|----------------|----------------|

Gb|----------------|----------------|
Db|----------------|----------------|
Ab|--3-4-3-4-3-4-3-|-4-3-4-3-4-6--8-|
Eb|----------------|----------------|

That's it ! Hope it's clear ^^


Enjoy ! This song is awesome to play ! = D





Comments


Popular Guns N Roses tabs & chords
Bad Apples 1 Bass Tabs
Breakdown Bass Tabs
Since I Dont Have You Bass Tabs
So Fine Bass Tabs
You Ain't The First Chords
Dont Cry 1 Drum Tabs
Down On The Farm 3 Tabs
Knocking On Heavens Door Live Tabs
Patience 1 Tabs
Used To Love Her 1 Tabs


Song lyrics



↑ Back to top | Tablatures and chords are parodies/interpretations of the original songs. You may use it for private study, scholarship, research or language learning purposes only
© 2014 AZChords.com Contact us | Privacy policy | DMCA | Add/correct tabs | Request tabs | Top 50 tabs