>
 >
Coma 2

Coma 2 Guitar Tabs

Guns N Roses - Coma 2 chords, tabs, tablatures, lyrics

Guitar lessons | Add/correct | Request | Top 50 tabs Artists:  A B C D E F G H I J K L M N O P Q R S T U V W X Y Z 0-9

Coma 2 Guitar Tabs – Guns N Roses

CD, Sheet music, Poster

Do you like Coma 2? Share with your friends now
Bass TabsBass Tabs v2ChordsChords v2TabsTabs v2Tabs v3UkuleleUkulele v2
Coma
4/4
  Riff A (Gtrs. I&II)
e--------------.-------------.-------------.-------------.-------------.
b--------------.-------------.-------------.-------------.-------------.
g--------------.-------------.-------------.-------------.-------------.
D-6-----5----6-.-6-----5-----.6-----5------.-2-----5-----.6-----5------.
A-4--0--3--0-4-.-4-0-0-3--0--.4--0--3--0-4-.---4-0-3--0--.4--0--3--0-4-.
E--------------.-------------.-------------.-------------.-------------.
                    end Riff A
e----------------.-------------.-------------------.------------.------------.
b----------------.-------------.-------------------.------------.13-13-------.
g----------------.-------------.-------------------.------------.14-14-------.
D--2-----5-5-4---.6-----5----6-.-7-8-9-10-11-12-13-.14-14-------.14-14-------.
A----4-0-3-3-2-0-.4--0--3--0-4-.-5-6-7-8--9--10-11-.12-12-------.12-12-------.
E----------------.-------------.-------------------.------------.------------.

e------------.------------.------------.------------.------------.
b-12-12------.11-11-------.10-10-------.9--9--------.------------.
g-12-12------.12-12-------.10-10-------.10-10-------.---------xx-.
D-12-12------.12-12-------.10-10-------.10-10-------.---------xx-.
A-10-10------.10-10-------.8--8--------.8--8--------.---------xx-.
E------------.------------.------------.------------.------------.

e------------------.---------------.-----------------.-----------.----------.
b------------------.---------------.---------------7-.--7--7-7---.6-6-------.
g-13--13--13-13--8-.-8-8---8-8--12-.-12-12--12-12--7-.--7--7-7---.7-7-------.
D-13--13--13-13--8-.-8-8---8-8--12-.-12-12--12-12--7-.--7--7-7---.7-7-------.
A-11--11--11-11--6-.-6-6-x-6-6--10-.-10-10--10-10--5-.--5--5-5---.5-5-------.
E------------------.---------------.-----------------.-----------.----------.

e-----------.----------.--------------.-------------.--------------.--------------.
b-5-5-------.4-4-------.--------------.-------------.--------------.--------------.
g-5-5-------.5-5-------.8--8---8-8--3-.--3---3-3--7-.-7-7---7-7--2-.--2---2-2-2---.
D-5-5-------.5-5-------.8--8---8-8--3-.--3---3-3--7-.-7-7---7-7--2-.--2---2-2-2---.
A-3-3-------.3-3-------.6--6-xx6-6--1-.--1-x-1-1--5-.-5-5-xx5-5--0-.--0-xx0-0-0-xx.
E-----------.----------.--------------.-------------.--------------.--------------.

e-----------.3-3-------.3-3-------.--------------.-------------.--------------.
b-1-1-------.3-3-------.3-3-------.--------------.-------------.--------------.
g-2-2-------.4-4-------.3-3-------.4--4---4-4----.-------------.4--4--4-5-6-7-.
D-2-2-------.5-5-------.5-5-------.4--4---4-4--4-.--4--4-4-4---.4--4--4-5-6-7-.
A-0-0-------.5-5-------.5-5-------.2--2-x-2-2--4-.--4--4-4-4---.2--2--2-3-4-5-.
E-----------.3-3-------.3-3-------.------------2-.--2--2-2-2-x-.--------------.

e-------------.-------------.-------------.-------------.--------------.
b-------------.-------------.-------------.-------------.--------------.
g--7--7-----2-.--2--2-------.-------------.-----------7-.--7---7-6---5-.
D--7--5-----2-.--2--2-----2-.--2---2----5-.--5--5-----7-.--7---7-6---5-.
A--5--5---4-0-.--0--0-----2-.--2---2----5-.--5--5-----5-.--5-xx5-4-x-3-.
E-------0-----.-------3-2-0-.--0-x-0--2-3-.--3--3-2-0---.--------------.
                                                         Rhy. Fill 1
e---------------.----------------.----------------------.-------------.
b---------------.----------------.----------------------.-------------.
g-4-5-4-5-4-5-4-.5-4-5-4-5-5-----.-w/Riff-A(1st-6-bars)-.-------------.
D-4-5-4-5-4-5-4-.5-4-5-4-5-5-----.----------------------.6-----5------.
A-2-3-2-3-2-3-2-.3-2-3-2-3-3-0-2-.----------------------.4--0--3--0-4-.
E---------------.----------------.----------------------.-------------.
 end Rhy. Fill 1
e---------------.---------.-------.--------.--------.---------.---11/----.
b---------------.---------.-------.------7-.------8-.------11-.----------.
g---------------.---------.-------.------7-.------7-.------10-.----------.
D-2-----5-5-4-3-.2-2------.-------.--------.--------.---------.--------3-.
A---4-0-3-3-2-1-.0-0------.--0----.--------.--------.---------.--------3-.
E---------------.---------.-------.--------.--------.---------.--------1-.

e---------------.-------------.--------------.-------------.---------------.
b---------------.-------------.--------------.-------------.---------------.
g---------------.-----------5-.--5---5-5---5-.--5---5-5--4-.-3-4-3-4-3-4-3-.
D-3-----3-----3-.--3--------5-.--5---5-5---5-.--5---5-5--4-.-3-4-3-4-3-4-3-.
A-3-----3-----3-.--3----3-5-3-.--3-x-3-3-x-3-.--3-xx3-3--2-.-1-2-1-2-1-2-1-.
E-1-1-1---1-1-1-.--1--5-------.--------------.-------------.---------------.
    P.M.  P.M.     
                  .Riff B......................
e-----------------.-------------.-------------.-------------------.----------.
b-----------------.-------------.-------------.-------------------.----------.
g-4-3-4-3-4-4-----.-------------.-------------.-w/Riff-B(3-times)-.-w/Riff-A-.
D-4-3-4-3-4-4-----.4-----3----4-.-4-----3-----.-------------------.----------.
A-2-1-2-1-2-2-----.2-----1----2-.-2-----1-----.-------------------.----------.
E-------------3-0-.---0-----0---.---3-0----0--.-------------------.----------.

e---------------.---------.------------------------.-----------.-----------------.
b---------------.15-------.15p14-------14-14-14-15-.14----/----.-----------------.
g---------------.14-------.------14----14-14-14-14-.14----/-16-.--16---16-16--16-.
D-5-4-3-2-5-4-3-.16-------.---------14-14-14-14-16-.14----/-16-.--16---16-16--16-.
A-3-2-1-0-3-2-1-.---------.------------------------.--------14-.--14-xx14-14--14-.
E---------------.---------.------------------------.-----------.-----------------.

e----------------.-------------.----------------.--3-------.---------.----------------.
b----------------.-------------.----------------.--3-----7-.-------9-.10p9------------.
g--16--16-16--11-.--11--11--11-.11--11----------.--------7-.-------9-.-----9----------.
D--16--16-16--11-.--11--11--11-.11--11--4---4-5-.--------7-.-------9-.-------9---9----.
A--14--14-14--9--.--9---9---9--.9---9-----4-----.--------5-.-------7-.---------9-9----.
E----------------.-------------.----------------.----------.---------.-----------7----.

e---0---------3--.----------.----------.0--------.--------.--------.--5---------.
b---------0-3----.----------.------0h2-.---------.--------.--------.----5-------.
g-------0--------.----4r----.----------.---------.2-------.--------.------4r----.
D-----4----------.----------.----------.-----2h4-.--------.--------.------------.
A-0--------------.----------.----------.---------.--------.--------.------------.
E----------------.----------.----------.---------.--------.--------.------------.

e-----5---.--------3------.--------.------2---5----.-.--------3------.-.-----------.
b-------5-.--5-4-2-----3--.--------.-------------2-.-.--5-4-2-----3--.-.5/7--/5----.
g---------.----------0----.2-------.----0---2------.-.----------0----.-.-----------.
D---------.---------------.--------.--4------------.-.---------------.-.-----------.
A---------.0--------------.--------.0--------------.-.0--------------.-.-----------.
E---------.---------------.--------.---------------.-.---------------.-.-----------.

e---0---2---5-----.---------.-.--------3-------.-.--2---5---0-----.--0-------.
b---------------2-.---------.-.--5-4-2-------3-.-.------------0---.2-------2-.
g-----0---2---2---.-----2r--.-.------------0---.-.----0---2-----2-.----------.
D-----------------.---------.-.----------4-----.-.----------------.----------.
A-0---------------.---------.-.0---------------.-.0---------------.----------.
E-----------------.---------.-.----------------.-.----------------.----------.

e-5----5----.--------3-------.0h2-------.--0---2---5-----.-----------.----------.
b----2------.--5-4-2-----3---.----------.--------------3-.2tr3-------.----5r----.
g-----------.----------0-----.----------.----0---2---2---.-----------.----------.
D-----------.--------------4-.----------.----------------.-----------.----------.
A-----------.0---------------.----------.0---------------.-----------.----------.
E-----------.----------------.----------.----------------.-----------.----------.

e---------3-------.-----------.------3-5-----.----------.-.------.--.-.--.-.--.-.
b---5-4-2-------3-.-----3-----.----3---------.-----2----.-.------.5-.-.4-.-.2-.-.
g-------------0---.-------0---.--0-----------.-----2----.-.x/-x/-.2-.-.2-.-.2-.-.
D-----------4-----.-----------.4----------4--.2----2----.-.x/-x/-.2-.-.2-.-.2-.-.
A-0---------------.-----------.--------------.----------.-.------.0-.-.0-.-.0-.-.
E-----------------.-----------.--------------.----------.-.------.--.-.--.-.--.-.

e--------.-----------.-.----------.-.-.---------------------.-------------.
b-1/1tr2-.-----------.-.----------.-.-.---------------------.-------------.
g-2------.-----------.-.----------.-.-.w/Riff-A(1st-6-bars)-.-------------.
D-2------.-----------.-.----------.-.-.---------------------.6-----5------.
A-0------.------12/--.-.3trem.bar-.-.-.---------------------.4--0--3--0-4-.
E--------.-----------.-.----------.-.-.---------------------.-------------.

e----------------.--.-.-.------.---------------.----------------.
b----------------.--.-.-.------.---------------.----------------.
g----------------.--.-.-.------.---------------.----------------.
D----------------.5-.-.-.----2-.-2---------2---.----2---------2-.
A--3-2-1-0-------.5-.-.-.----0-.-0-0-0-0-0-0-0-.0-0-0-0-0-0-0-0-.
E----------0-1-2-.3-.-.-.------.---------------.----------------.
              *                    P.M....   ......   .......  
e----------------.----------------.---------------.----------------.
b----------------.----------------.---------------.----------------.
g--2-------------.----------------.---------------.----------------.
D------------2---.----2-----------.---------------.----------------.
A----0-0-0-0-0-0-.0-0-0-0-0-0-0-5-.-5---------5---.----5---------5-.
E----------------.--------------3-.-3-3-3-3-3-3-3-.3-3-3-3-3-3-3-3-.
     P.M....   ......   .......       .......   ......   .......
e----------------.----------------.---------------.----------------.
b----------------.----------------.---------------.----------------.
g----------------.----------------.---------------.----------------.
D----------------.----------------.---------------.----------------.
A--5---------5---.----5---------3-.-3---------3---.----3---------3-.
E--3-3-3-3-3-3-3-.3-3-3-3-3-3-3-1-.-1-1-1-1-1-1-1-.1-1-1-1-1-1-1-1-.
     P.M....   ......   .......       .......   ......   .......
e----------------.----------------.-------------.-------------.------------.
b----------------.----------------.-------------.-------------.------------.
g----------------.--------------5-.--5---5-5----.-----------7-.--7--7-7--2-.
D----------------.--------3-3-3-5-.--5---5-5--5-.--5---5-5--7-.--7--7-7--2-.
A--3---------3---.--3-----3-3-3-3-.--3-x-3-3--5-.--5---5-5--5-.--5--5-5--0-.
E--1-1-1-1-1-1-1-.1-1-1-1-1-1-1---.-----------3-.--3-x-3-3----.------------.
     P.M....   ....   ...
e--------------.---------------.----------------.----------------.---------------.
b--------------.---------------.----------------.----------------.---------------.
g--2---2-2---5-.-5-----5-----5-.----5---5-5---5-.----5---5-5---5-.----5---5-5----.
D--2---2-2---5-.-5-----5-----5-.----5---5-5---5-.----5---5-5---5-.----5---5-5--5-.
A--0-x-0-0-x-3-.-3-3-3---3-3---.3-3---33----3---.3-3---33----3---.3-3---33-----5-.
E--------------.---------------.----------------.----------------.-------------3-.
                   P.M   ...    ...   ..    .    ...   ..    .    ...   ..
e-----------------.-.-.----------------.--------------.-------------.-------------.
b-----------------.-.-.----------------.--------------.-------------.-------------.
g-----------------.%.%.----------------.--------------.-----------5-.--5---5-5--5-.
D-----5-----5---5-.-.-.----5---5-5-5-3-.--3-----3---3-.--3--------5-.--5---5-5--5-.
A-----5-----5---5-.-.-.----5---5-5-5-3-.--3-----3---3-.--3----3-5-3-.--3-xx3-3--3-.
E-3-3---3-3---3---.-.-.3-3---3-3-3-3-1-.--1-1-1---1-1-.--1--5-------.-------------.
  P.M   ...   .        ...   .              ...   .   
e-------------.---------------.----------------.----------------.--------.------------.
b-------------.---------------.----------------.----------------.--------.------------.
g--5---5-5--4-.-3-4-3-4-3-4-3-.4-3-4-3-4-4-----.w/Riff-B(4times).w/Riff-A.w/Rhy.Fill-2.
D--5---5-5--4-.-3-4-3-4-3-4-3-.4-3-4-3-4-4-----.----------------.--------.------------.
A--3-xx3-3--2-.-1-2-1-2-1-2-1-.2-1-2-1-2-2-----.----------------.--------.------------.
E-------------.---------------.------------3-0-.----------------.--------.------------.

e-----------------.----------------.----------------.----------------.
b-----------------.----------------.1-1-------------.----------------.
g-2-2-------------.----------------.2-2-------------.----------------.
D-2-2-------------.----------------.2-2-------------.----------------.
A-0-0-0-0-0-0-0-0-.0-0-0-0-0-0-0-0-.0-0-0-0-0-0-0-0-.0-0-0-0-0-0-0-0-.
E-----------------.----------------.----------------.----------------.
      P.M.........................      ............................
e-----------------.----------------.----------------.----------------.
b-----------------.----------------.----------------.----------------.
g-4-4-------------.----------------.3-3-------------.----------------.
D-5-5-------------.----------------.5-5---------5---.--5-----5-5-5-3-.
A-5-5-------------.----------------.5-5---------5---.--5-----5-5-5-3-.
E-3-3-3-3-3-3-3-3-.3-3-3-3-3-3-3-3-.3-3-3-3-3-3---3-.3---3-3-3-3-3-1-.
      P.M.........................      .......   ....
e---------------.----------------.--------------.------------.------------.
b---------------.----------------.--------------.------------.------------.
g---------------.--------------5-.--5---5-5---5-.--5--5-6----.------------.
D---3-----3---3-.--------------5-.--5---5-5---5-.--5--5-6----.------------.
A---3-----3---3-.----3-----3-5-3-.--3-xx3-3-x-3-.--3--3-4--5-.--0--4--0-3-.
E---1-1-1-1-1-1-.1-1-1-0-5-------.--------------.------------.------------.
      P.M.  .    ...
e----------------.--------------.--------------.--------------.-------------.
b----------------.--------------.--------------.--------------.-------------.
g--------------4-.--4---4-5-6-7-.--7---7-----2-.--2---2-------.-------------.
D--------0-2---4-.--4---4-5-6-7-.--7---7-----2-.--2---2-----2-.--2---2----5-.
A----0-2-----0-2-.--2-xx2-3-4-5-.--5-xx5---4-0-.--0-x-0-----2-.--2---2----5-.
E--3-------------.--------------.--------0-----.--------3-2-0-.--0-xx0--2-3-.

e---------------.------------.---------------.----------------.------------.
b---------------.------------.---------------.----------------.------------.
g-------------7-.--7--7-6--5-.-4-5-4-5-4-5-4-.5-4-5-4-5-------.------------.
D---5---5-----7-.--7--7-6--5-.-4-5-4-5-4-5-4-.5-4-5-4-5-----2-.--2--2-2--5-.
A---5---5-----5-.--5--5-4--3-.-2-3-2-3-2-3-2-.3-2-3-2-3-----2-.--2--2-2--5-.
E---3-xx3-2-0---.------------.---------------.----------3-2-0-.--0--0-0--3-.

e-------------.------------.------------.-------------.------------.
b-------------.------------.------------.-------------.------------.
g-----------7-.--7--7-7--2-.--2--2-2--5-.--5--5-------.------------.
D---5--5-5--7-.--7--7-7--2-.--2--2-2--5-.--5--5-----5-.--5--5------.
A---5--5-5--5-.--5--5-5--0-.--0--0-0--3-.--3--3-2-0-5-.--5--5-4--3-.
E---3--3-3----.------------.------------.-----------3-.--3--3-2--1-.
          
e----------------.-----------------.-------------.-------------.
b----------------.-----------Gtr.*2.-------------.-------------.
g----------------.---------------2-.--2---2-2--5-.--5---5-5----.
D----------------.---------------2-.--2---2-2--5-.--5---5-5--5-.
A----3---3---3---.3---3---3-5----0-.--0-xx0-0--3-.--3-xx3-3--5-.
E--0-1-0-1-0-1-0-.1-0-1-0-1-3--5---.-------------.-----------3-.
                               *Gtr.1
e---------------.-------------.-------------.-------------.---------------.
b---------------.-------------.-------------.-------------.---------------.
g-------------7-.--7-6-7-7----.-----------5-.--5---5-4--3-.---3---3---3---.
D---5---5-5---7-.--7-6-7-7--3-.--3---3-3--5-.--5---5-4--3-.---3---3---3---.
A---5---5-5---5-.--5-4-5-5--3-.--3---3-3--3-.--3-xx3-2--1-.-0-1-0-1-0-1-0-.
E---3-xx3-3-x---.-----------1-.--1-x-1-1----.-------------.---------------.

e-----------------.---------------.--------------.-------------.
b-----------------.---------------.--------------.-------------.
g-3---3---3-5-5-7-.-7-7---7-7--10-.--10--10-10-5-.--5---5-5----.
D-3---3---3-5-5-7-.-7-7---7-7--10-.--10--10-10-5-.--5---5-5--5-.
A-1-0-1-0-1-3-3-5-.-5-5-xx5-5--8--.--8-xx8--8--3-.--3-xx3-3--5-.
E-----------------.---------------.--------------.-----------3-.

e--------------.-------------.--------------.---------------.
b--------------.-------------.--------------.---------------.
g------------3-.--3---3-3----.-----10-10--8-.-7-8-7-8-7-8-7-.
D---5---5-5--3-.--3---3-3--3-.--3--10-10--8-.-7-8-7-8-7-8-7-.
A---5---5-5--1-.--1-xx1-1--3-.--3--8--8---6-.-5-6-5-6-5-6-5-.
E---3-xx3-3----.-----------1-.--1-----------.---------------.

e-----------------.------------.-------------.------------.
b-----------------.------------.-------------.------------.
g-8-7-8-7-8-------.----------3-.--3---3-3----.----------5-.
D-8-7-8-7-8-3-3-5-.--5--5-5--3-.--3---3-3--3-.--3--3-3--5-.
A-6-5-6-5-6-3-3-5-.--5--5-5--1-.--1-x-1-1--3-.--3--3-3--3-.
E-----------1-1-3-.--3--3-3----.-----------1-.--1--1-1----.

e--------------.-------------.-------------.---------------.---------------.
b--------------.-------------.-------------.---------------.---------------.
g---5---5-5--8-.--8---8-8--3-.--3---3------.---------------.-------------5-.
D---5---5-5--8-.--8---8-8--3-.--3---3----6-.-5-6-5-6-5-6-5-.6-5-6-5-6-5--5-.
A---3-xx3-3--6-.--6-xx6-6--1-.--1-xx1-0--6-.-5-6-5-6-5-6-5-.6-5-6-5-6-5--3-.
E--------------.-------------.-----------4-.-3-4-3-4-3-4-3-.4-3-4-3-4-3----.

e--------------.---------------.--------------.-------------.-------------.
b--------------.---------------.--------------.-------------.-------------.
g---5---5-5--8-.-8-8---8-8---3-.--3---3-3-----.-------------.-----------8-.
D---5---5-5--8-.-8-8---8-8---3-.--3---3-3---3-.--3---3-3--6-.--6---6-6--8-.
A---3-xx3-3--6-.-6-6-x-6-6-x-1-.--1-x-1-1-x-3-.--3---3-3--6-.--6---6-6--6-.
E--------------.---------------.------------1-.--1-x-1-1--4-.--4-x-4-4----.

e--------------.---------------.---------------.---------------.
b--------------.---------------.---------------.---------------.
g---8---8-7--6-.-5-6-5-6-5-6-5-.6-5-6-5-6-5--6-.-5-6-5-6-5-6-5-.
D---8---8-7--6-.-5-6-5-6-5-6-5-.6-5-6-5-6-5--6-.-5-6-5-6-5-6-5-.
A---6-xx6-5--4-.-3-4-3-4-3-4-3-.4-3-4-3-4-3--4-.-3-4-3-4-3-4-3-.
E--------------.---------------.---------------.---------------.

e----------------.--------------.----------------.-.
b----------------.--------------.----------------.-.
g-6-5-6-5-6-5--6-.---6-----6----.--6-----6-8--10-.-.
D-6-5-6-5-6-5----.--------------.--------6-8--10-.-.
A-4-3-4-3-4-3----.444--4444--444.44--44444-6--8--.-.
E----------------.--------------.----------------.-.
                 P.M.  ....  ......  ....





Comments


Popular Guns N Roses tabs & chords
Nightrain 2 Bass Tabs
Bad Obsession (Intro) Tabs
Get In The Ring Tabs
Nightrain Live Intro Tabs
Patience 1 Tabs
Pretty Tied Up Tabs
Pretty Tied Up 1 Tabs
Sweet Child O Mine Harmonic Intro Tabs
The Godfather Theme 3 Tabs
Welcome To The Jungle Intro Tabs


Song lyrics



↑ Back to top | Tablatures and chords are parodies/interpretations of the original songs. You may use it for private study, scholarship, research or language learning purposes only
© 2014 AZChords.com Contact us | Privacy policy | DMCA | Add/correct tabs | Request tabs | Top 50 tabs