» » »

Soccer Bass tabs (ver.3)

Artists:  A B C D E F G H I J K L M N O P Q R S T U V W X Y Z # 

Soccer Bass tabs (ver.3)

Group X
Rating:
0/5 (0 votes)

Hard to play? Try these video lessons and learn fast.
                Intro
|------------------------|------------------------|
|-7----------------------|------------------------|
|------------------------|-7----------------------|
|------------------------|------------------------|

 Verse
|------------------------|------------------------|
|------------------------|---------3--------------|
|-5-----5---3-----3------|------1-----0-----------|
|----5---------3---------|---------------3--5-----|

 Chorus
|------------------------|------------------------|
|------------------------|-------------3--2-------|
|-5-----2--3-----0-------|-5-----2--3-------------|
|----5--------3----------|----5-------------------|

|------------------------|------------------------|
|------------------------|------------------------|
|-5-----2--3-----0-------|-5--5--------5--5-------|
|----5--------3----------|------------------------|
            
Hard to play? Try these video lessons and learn fast. | Correct




comments powered by Disqus
↑ Back to top | Tablatures and chords are parodies/interpretations of the original songs. You may use it for private study, scholarship, research or language learning purposes only