» » »

Soccer Bass tabs (ver.2)

Artists:  A B C D E F G H I J K L M N O P Q R S T U V W X Y Z # 

Soccer Bass tabs (ver.2)

Group X
Rating:
0/5 (0 votes)

Hard to play? Try these video lessons and learn fast.
                Intro:

G|------------------------------------|
D|------------7-----------------------|
A|------------------------7-----------| x1
E|------------------------------------|


Verse:

G|------------------------------------|
D|------------------------------------|
A|-5---5---3---3------5---8-----------| x10
E|---5-------3----------6---5-3-5-----|


Chorus:

G|-------------------------------------
D|---------------------33-2------------
A|-5---2-3-----5---2-3-----------------
E|---5-----3-5---5---------------------

G|------------------------------------|
D|------------------------------------|
A|-5---2-3-------3-3---3--------------| x2
E|---5-----3-5------------------------|

After This Play The Chorus And Verse Sections 3 More Times. End On:

G|-----|
D|-----|
A|--5--|
E|-----|

And That’s The Whole Song.
            
Hard to play? Try these video lessons and learn fast. | Correct




comments powered by Disqus
↑ Back to top | Tablatures and chords are parodies/interpretations of the original songs. You may use it for private study, scholarship, research or language learning purposes only