>
 >
No Reason

No Reason Guitar Tabs

Grinspoon - No Reason chords, tabs, tablatures, lyrics

Guitar lessons | Add/correct | Request | Top 50 tabs Artists:  A B C D E F G H I J K L M N O P Q R S T U V W X Y Z 0-9

No Reason Guitar Tabs – Grinspoon

CD, Sheet music, Poster

Do you like No Reason? Share with your friends now
Bass TabsBass Tabs v2ChordsDrum TabsTabsTabs v2Tabs v3Tabs v4Tabs v5Tabs v6
PROPS GO TO: Sam Xu

b = bend
h = hammer on
/ = slide
p = pluck
* = slide with pick
Intro
e|------------------------------------------------|
B|------------------------------------------------|
G|-6-6--8-8--8/9b-9--8-6--------------------------|x2
D|-6-6--8-8---------------------------------------|
A|-4-4--6-6---------------------------------------|
E|------------------------------------------------|

Pre-verse
    E           G#            C#        A          
e|--------0--------------x-x-------4-------5------|
B|----------0---------4--x-x--4h5--5----5----5----|
G|--------------------5--x-x--4h6--6----6---------|
D|--------------------6--x-x--4h6--6----7---------|
A|--------------------6--x-x--4----4----7---------|
E|--0p-0p-------4-4---4--x-x------------5---------|

Verse (slightly palm muted)
   E             G#            C#       A          
e|-------0--x-x-----------x-x-------4------5------|
B|-------0--x-x--------4--x-x--4h5--5---5----5----|
G|-------1--x-x--------5--x-x--4h6--6---6---------|x4
D|-------2--x-x--------6--x-x--4h6--6---7---------|
A|-------2--x-x--------6--x-x--4----4---7---------|
E|-0-0------x-x--4-4---4--x-x---------------------|

*****************************************************

Chorus 

e|------------------------------------------------|
B|------------------------------------------------|
G|-6-6--8-8--8/9b-9--8-6--------------------------|x3
D|-6-6--8-8---------------------------------------|
A|-4-4--6-6---------------------------------------|
E|------------------------------------------------|

e|------------------------------------------------|
B|------------------------------------------------|
G|-6-6-6-6-6-6-6-6--8-8-8-8-8-8-8-8---------------|
D|-6-6-6-6-6-6-6-6--8-8-8-8-8-8-8-8---------------|
A|-4-4-4-4-4-4-4-4--6-6-6-6-6-6-6-6---------------|
E|------------------------------------------------|

Bridge

e|------------------------------------------------|
B|------------------------------------------------|
G|--------------------x-x-6-x---------------------|x4
D|-2-2-2--x-x--6-6-6--x-x-6-x---7--7-7-7----------|
A|-2-2-2--x-x--6-6-6--x-x-4-x---7--7-7-7----------|
E|-0-0-0--x-x--4-4-4------------5--5-5-5----------|

Solo

e|----12------------------------------------------|
B|-/12---12--/12--14--12------------14------------|
G|------------------------12/13--16----16--14-----|
D|--------------------------------------------14--|
A|------------------------------------------------|
E|------------------------------------------------|

Repeat Verse

Then

e|--------------------------------------------------|
B|--------------------------------------------------|
G|---------6----------------------------------------|
D|-2---6---6---7------------------------------------|
A|-2---6---4---7------------------------------------|
E|-0---4-------5------------------------------------|

e|--------------------------------------------------|
B|--------------------------------------------------|
G|-----------------6-6-6-6--------------------------|
D|-2-2-2-2-6-6-6-6-6-6-6-6-7-7-7-7------------------|
A|-2-2-2-2-6-6-6-6-4-4-4-4-7-7-7-7------------------|
E|-0-0-0-0-4-4-4-4---------5-5-5-5------------------|

Outro

e|------------------------------------------------|
B|------------------------------------------------|
G|-6-6--8-8--8/9b-9--8-6--------------------------|x3
D|-6-6--8-8---------------------------------------|
A|-4-4--6-6---------------------------------------|
E|------------------------------------------------|

e|------------------------------------------------|
B|------------------------------------------------|
G|-6-6--8-8--8/9b-6--~~~~-------------------------| 
D|-6-6--8-8---------------------------------------|
A|-4-4--6-6---------------------------------------|
E|------------------------------------------------|

Order of riffs

Intro 
Pre-verse
Verse
Chorus
Pre-verse
Verse
Chorus
Bridge
Solo
Verse
Bridge
Outro

that's it

enjoy =p





Comments


Popular Grinspoon tabs & chords
Explain Bass Tabs
Snap Your Fingers, Snap Your Neck 1 Bass Tabs
All The Time Tabs
Black Friday (Intro) Tabs
Chemical Heart 1 Tabs
Damn Straight Tabs
Dial Tone Tabs
Freezer Tabs
Hard Act To Follow Tabs
Secret Agent Tabs


Song lyrics



↑ Back to top | Tablatures and chords are parodies/interpretations of the original songs. You may use it for private study, scholarship, research or language learning purposes only
© 2014 AZChords.com Contact us | Privacy policy | DMCA | Add/correct tabs | Request tabs | Top 50 tabs