» » »

Grinspoon, No Reason Tabs (ver.2)

Artists:  A B C D E F G H I J K L M N O P Q R S T U V W X Y Z # 

No Reason Tabs (ver.2)

Grinspoon Tabs
Rating:
0/5 (0 votes)
No Reason lessons Tabs too difficult? Try these video lessons and learn fast
                Intro (Pat)
e|----------------------------------------------------------------------------|
B|----------------------------------------------------------------------------|
G|-6-6----8-8----8b-----8b-8-6------------------------------------------------|
D|----------------------------------------------------------------------------|
A|-4-4----6-6----6------6--6-4------------------------------------------------|
E|----------------------------------------------------------------------------|

Intro (Phil)
e|----------------------------------------------------------------------------|
B|----------------------------------------------------------------------------|
G|-6-6------------------------------------------------------------------------|
D|-6-6----6-6----7-7--4-------------------------------------------------------|
A|-4-4----6-6----7-7--4-------------------------------------------------------|
E|--------4-4----5-5--2--0-2-0------------------------------------------------|

Intro (part 2) (Pat)
e|---0---------4-------------5--5---------------------------------------------|
B|-----0-------4----4h6--6---5----5-------------------------------------------|
G|---------x-x-5----4h6--6---6------6-----------------------------------------|
D|---------x-x-6----4h6--6---7------------------------------------------------|
A|---------x-x-6----4----4---7------------------------------------------------|
E|-0-------x-x-4-------------5------------------------------------------------|

Verse (Phil)
e|----------------------------------------------------------------------------|
B|----------------------------------------------------------------------------|
G|----------------------------------------------------------------------------|
D|----------------------------------------------------------------------------|
A|----------------------------------------------------------------------------|
E|-0-0-2-3-4------------------------------------------------------------------|

Verse (Pat)
e|-------------4------------5--5----------------------------------------------|
B|-------------4---4h6--6---5----5--------------------------------------------|
G|------1------5---4h6--6---6------6------------------------------------------|
D|------2------6---4h6--6---7-------------------------------------------------|
A|-2-2--2--6-6-6---4----4---7-------------------------------------------------|
E|-0-0--0--4-4—4------------5-------------------------------------------------|
   * *     * *

Chorus (Pat)
e|------------------------------|---------------------------------------------|
B|------------------------------|---------------------------------------------|
G|-6-6----8-8----8b-----8b-8-6--|-6-6-6-6-6-6-6-6--8-8-8-8-8-8-8-8------------|
D|------------------------------|---------------------------------------------|
A|-4-4----6-6----6------6--6-4--|---------------------------------------------|
E|------------------------------|---------------------------------------------|

Chorus (Phil)
e|------------------------------|---------------------------------------------|
B|------------------------------|---------------------------------------------|
G|-6-6--------------------------|---------------------------------------------|
D|-6-6----6-6----7-7--4---------|-7-7-7-7-7-7-7-7--9-9-9-9-9-9-9-9------------|
A|-4-4----6-6----7-7--4---------|-7-7-7-7-7-7-7-7--9-9-9-9-9-9-9-9------------|
E|--------4-4----5-5--2--0-2-0--|-5-5-5-5-5-5-5-5--7-7-7-7-7-7-7-7------------|

Verse

Chorus

Chorus 2 (both)
e|----------4-----------------5-----------------------------------------------|
B|----------4--------6--------5-----------------------------------------------|
G|-1--------5--------6--------6-----------------------------------------------|
D|-2--------6--------6--------7-----------------------------------------------|
A|-2--------6--------4--------7-----------------------------------------------|
E|-0--------4-----------------5-----------------------------------------------|

Bridge (Phil)
e|----12--------10--------9---------------------------------------------------|
B|-12----12--12----12--12---12--10--------------------------------------------|
G|---------------------------------9------------------------------------------|
D|----------------------------------------------------------------------------|
A|----------------------------------------------------------------------------|
E|----------------------------------------------------------------------------|

Verse (Pat/quiet)

Chorus 2

Chorus

This sounds pretty damn good to me... ne complaints tab it urself!!!!!!!!
            
Submit corrections

comments powered by Disqus
↑ Back to top | Grinspoon Tabs for No Reason. Lyrics for acoustic guitar and electric guitar. Tablatures and chords are parodies/interpretations of the original songs. You may use it for private study, scholarship, research or language learning purposes only