» » »

Black Tattoo Tabs (ver.2)

Artists:  A B C D E F G H I J K L M N O P Q R S T U V W X Y Z # 

Black Tattoo Tabs (ver.2)

Grinspoon
Rating:
5/5 (1 vote)

Hard to play? Try these video lessons and learn fast.
                hey, i just heard this song and i though i\'d tab it. umm yeh im pretty sure its like 
correct and im still working on a solo so give a me another day or two. later, enjoy

tuning is drop D (for those who don\'t know: tune your top E string to your 4th string, D)
 s = slide
 h = hammer on

INTRO
E|----------------0-0------------0-0------------0-0------------0-0-|
B|----------------3-3------------3-3------------3-3------------3-3-|
G|----------------2-2------------2-2------------2-2------------2-2-|
D|-12s-2-5-2s-7-8-0-0-2-5-2s-7-8-0-0-2-5-2s-7-8-0-0-2-5-2s-7-8-0-0-|
A|-12s-2-5-2s-7-8-0-0-2-5-2s-7-8-0-0-2-5-2s-7-8-0-0-2-5-2s-7-8-0-0-|
D|-12s-2-5-2s-7-8-0-0-2-5-2s-7-8-0-0-2-5-2s-7-8-0-0-2-5-2s-7-8-0-0-|

INTRO CONT./ VERSE 1
E|----------------------------------------------------------------------|
B|----------------------------------------------------------------------|
G|----------------------------------------------------------------------|
D|-2-2-2-2-2-2-0-2--2-2-2-2-2-2-0-2-5--5-5-5-5-5-2-5-5--7-7-7-7-7-5-7-8-|
A|-2-2-2-2-2-2-0-2--2-2-2-2-2-2-0-2-5--5-5-5-5-5-2-5-5--7-7-7-7-7-5-7-8-|
D|-2-2-2-2-2-2-0-2--2-2-2-2-2-2-0-2-5--5-5-5-5-5-2-5-5--7-7-7-7-7-5-7-8-|

VERSE 1 CONT. (PALMUTED)
E|----------------------------------------------------------------------|
B|----------------------------------------------------------------------|
G|----------------------------------------------------------------------|
D|-2-2-2-2-2-2-0-2--2-2-2-2-2-2-0-2-5--5-5-5-5-5-2-5-5--7-7-7-7-7-5-7-8-|
A|-2-2-2-2-2-2-0-2--2-2-2-2-2-2-0-2-5--5-5-5-5-5-2-5-5--7-7-7-7-7-5-7-8-|
D|-2-2-2-2-2-2-0-2--2-2-2-2-2-2-0-2-5--5-5-5-5-5-2-5-5--7-7-7-7-7-5-7-8-|

E|----------------------------------------------------------------------|
B|----------------------------------------------------------------------|
G|----------------------------------------------------------------------|
D|-2-2-2-2-2-2-0-2--2-2-2-2-2-2-0-2-5--5-5-5-5-5-2-5-5--7-7-7-7-7-5-7-8-|
A|-2-2-2-2-2-2-0-2--2-2-2-2-2-2-0-2-5--5-5-5-5-5-2-5-5--7-7-7-7-7-5-7-8-|
D|-2-2-2-2-2-2-0-2--2-2-2-2-2-2-0-2-5--5-5-5-5-5-2-5-5--7-7-7-7-7-5-7-8-|

PRE CHORUS (SAME AS INTRO CONT./VERSE 1)
E|----------------------------------------------------------------------|
B|----------------------------------------------------------------------|
G|----------------------------------------------------------------------|
D|-2-2-2-2-2-2-0-2--2-2-2-2-2-2-0-2-5--5-5-5-5-5-2-5-5--7-7-7-7-7-5-7-8-|
A|-2-2-2-2-2-2-0-2--2-2-2-2-2-2-0-2-5--5-5-5-5-5-2-5-5--7-7-7-7-7-5-7-8-|
D|-2-2-2-2-2-2-0-2--2-2-2-2-2-2-0-2-5--5-5-5-5-5-2-5-5--7-7-7-7-7-5-7-8-|

E|----------------------------------------------------------------------|
B|----------------------------------------------------------------------|
G|----------------------------------------------------------------------|
D|-2-2-2-2-2-2-0-2--2-2-2-2-2-2-0-2-5--5-5-5-5-5-2-5-5--7-7-7-7-7-5-7-8-|
A|-2-2-2-2-2-2-0-2--2-2-2-2-2-2-0-2-5--5-5-5-5-5-2-5-5--7-7-7-7-7-5-7-8-|
D|-2-2-2-2-2-2-0-2--2-2-2-2-2-2-0-2-5--5-5-5-5-5-2-5-5--7-7-7-7-7-5-7-8-|

CHORUS
E|------------------------------------------------------------------------------|
B|------------------------------------------------------------------------------|
G|------------------------------------------------------------------------------|
D|-2-2-2-2-2-2-2-2-5-5-5-5-5-5-5-5-10-10-10-10-10-10-10-10-7-7-7-7-7-7-10h12-12-|
A|-2-2-2-2-2-2-2-2-5-5-5-5-5-5-5-5-10-10-10-10-10-10-10-10-7-7-7-7-7-7-10h12-12-|
D|-2-2-2-2-2-2-2-2-5-5-5-5-5-5-5-5-10-10-10-10-10-10-10-10-7-7-7-7-7-7-10h12-12-|

E|---------------------------------------------------------------------------------|
B|---------------------------------------------------------------------------------|
G|---------------------------------------------------------------------------------|
D|-2-2-2-2-2-2-2-2-5-5-5-5-5-5-5-5-10-10-10-10-10-10-10-10-5-6-7-5-6-7-5-6-7-5-6-7-|
A|-2-2-2-2-2-2-2-2-5-5-5-5-5-5-5-5-10-10-10-10-10-10-10-10-5-6-7-5-6-7-5-6-7-5-6-7-|
D|-2-2-2-2-2-2-2-2-5-5-5-5-5-5-5-5-10-10-10-10-10-10-10-10-5-6-7-5-6-7-5-6-7-5-6-7-|


VERSE 2 (SAME AS INTRO/VERSE 1.)
E|----------------------------------------------------------------------|
B|----------------------------------------------------------------------|
G|----------------------------------------------------------------------|
D|-2-2-2-2-2-2-0-2--2-2-2-2-2-2-0-2-5--5-5-5-5-5-2-5-5--7-7-7-7-7-5-7-8-|
A|-2-2-2-2-2-2-0-2--2-2-2-2-2-2-0-2-5--5-5-5-5-5-2-5-5--7-7-7-7-7-5-7-8-|
D|-2-2-2-2-2-2-0-2--2-2-2-2-2-2-0-2-5--5-5-5-5-5-2-5-5--7-7-7-7-7-5-7-8-|

E|----------------------------------------------------------------------|
B|----------------------------------------------------------------------|
G|----------------------------------------------------------------------|
D|-2-2-2-2-2-2-0-2--2-2-2-2-2-2-0-2-5--5-5-5-5-5-2-5-5--7-7-7-7-7-5-7-8-|
A|-2-2-2-2-2-2-0-2--2-2-2-2-2-2-0-2-5--5-5-5-5-5-2-5-5--7-7-7-7-7-5-7-8-|
D|-2-2-2-2-2-2-0-2--2-2-2-2-2-2-0-2-5--5-5-5-5-5-2-5-5--7-7-7-7-7-5-7-8-|

PRE CHORUS (SAME AS INTRO CONT./VERSE 1)

E|----------------------------------------------------------------------|
B|----------------------------------------------------------------------|
G|----------------------------------------------------------------------|
D|-2-2-2-2-2-2-0-2--2-2-2-2-2-2-0-2-5--5-5-5-5-5-2-5-5--7-7-7-7-7-5-7-8-|
A|-2-2-2-2-2-2-0-2--2-2-2-2-2-2-0-2-5--5-5-5-5-5-2-5-5--7-7-7-7-7-5-7-8-|
D|-2-2-2-2-2-2-0-2--2-2-2-2-2-2-0-2-5--5-5-5-5-5-2-5-5--7-7-7-7-7-5-7-8-|

E|----------------------------------------------------------------------|
B|----------------------------------------------------------------------|
G|----------------------------------------------------------------------|
D|-2-2-2-2-2-2-0-2--2-2-2-2-2-2-0-2-5--5-5-5-5-5-2-5-5--7-7-7-7-7-5-7-8-|
A|-2-2-2-2-2-2-0-2--2-2-2-2-2-2-0-2-5--5-5-5-5-5-2-5-5--7-7-7-7-7-5-7-8-|
D|-2-2-2-2-2-2-0-2--2-2-2-2-2-2-0-2-5--5-5-5-5-5-2-5-5--7-7-7-7-7-5-7-8-|

CHORUS

E|------------------------------------------------------------------------------|
B|------------------------------------------------------------------------------|
G|------------------------------------------------------------------------------|
D|-2-2-2-2-2-2-2-2-5-5-5-5-5-5-5-5-10-10-10-10-10-10-10-10-7-7-7-7-7-7-10h12-12-|
A|-2-2-2-2-2-2-2-2-5-5-5-5-5-5-5-5-10-10-10-10-10-10-10-10-7-7-7-7-7-7-10h12-12-|
D|-2-2-2-2-2-2-2-2-5-5-5-5-5-5-5-5-10-10-10-10-10-10-10-10-7-7-7-7-7-7-10h12-12-|

E|---------------------------------------------------------------------------------|
B|---------------------------------------------------------------------------------|
G|---------------------------------------------------------------------------------|
D|-2-2-2-2-2-2-2-2-5-5-5-5-5-5-5-5-10-10-10-10-10-10-10-10-5-6-7-5-6-7-5-6-7-5-6-7-|
A|-2-2-2-2-2-2-2-2-5-5-5-5-5-5-5-5-10-10-10-10-10-10-10-10-5-6-7-5-6-7-5-6-7-5-6-7-|
D|-2-2-2-2-2-2-2-2-5-5-5-5-5-5-5-5-10-10-10-10-10-10-10-10-5-6-7-5-6-7-5-6-7-5-6-7-|

SOLO (I haven\'t worked it all out yet so just play the INTRO)

E|----------------0-0------------0-0------------0-0------------0-0-|
B|----------------3-3------------3-3------------3-3------------3-3-|
G|----------------2-2------------2-2------------2-2------------2-2-|
D|-12s-2-5-2s-7-8-0-0-2-5-2s-7-8-0-0-2-5-2s-7-8-0-0-2-5-2s-7-8-0-0-|
A|-12s-2-5-2s-7-8-0-0-2-5-2s-7-8-0-0-2-5-2s-7-8-0-0-2-5-2s-7-8-0-0-|
D|-12s-2-5-2s-7-8-0-0-2-5-2s-7-8-0-0-2-5-2s-7-8-0-0-2-5-2s-7-8-0-0-|

there ya go.. i\'ll add the solo soon


mitch cook
            
Hard to play? Try these video lessons and learn fast. | Correct




comments powered by Disqus
↑ Back to top | Tablatures and chords are parodies/interpretations of the original songs. You may use it for private study, scholarship, research or language learning purposes only