» » »

Black Tattoo Tabs (ver.1)

Artists:  A B C D E F G H I J K L M N O P Q R S T U V W X Y Z # 

Black Tattoo Tabs (ver.1)

Grinspoon
Rating:
5/5 (5 votes)

Hard to play? Try these video lessons and learn fast.
                Grinspoon - Black Tattoo

Tuning: Drop D

No Solo. these are the main parts.

e-------------------------------------------------------------|
b-------------------------------------------------------------|
g-------------------------------------------------------------|
d-12s-2-5-2-7-8-0-0-2-5-2-7-8-0-0-2-5-2-7-8-0-0-2-5-2-7-8-0-0-|
a-12s-2-5-2-7-8-0-0-2-5-2-7-8-0-0-2-5-2-7-8-0-0-2-5-2-7-8-0-0-|
d-12s-2-5-2-7-8-0-0-2-5-2-7-8-0-0-2-5-2-7-8-0-0-2-5-2-7-8-0-0-|


e----------------------------------------------------------------------|
b----------------------------------------------------------------------|
g----------------------------------------------------------------------|
d-2-2-2-2-2-2-0-2--2-2-2-2-2-2-0-2-5--5-5-5-5-5-2-5-5--7-7-7-7-7-5-7-8-|
a-2-2-2-2-2-2-0-2--2-2-2-2-2-2-0-2-5--5-5-5-5-5-2-5-5--7-7-7-7-7-5-7-8-|
d-2-2-2-2-2-2-0-2--2-2-2-2-2-2-0-2-5--5-5-5-5-5-2-5-5--7-7-7-7-7-5-7-8-|

Chorus 1
e------------------------------------------------------------------------------|
b------------------------------------------------------------------------------|
g------------------------------------------------------------------------------|
d-2-2-2-2-2-2-2-2-5-5-5-5-5-5-5-5-10-10-10-10-10-10-10-10-7-7-7-7-7-7-10h12-12-|
a-2-2-2-2-2-2-2-2-5-5-5-5-5-5-5-5-10-10-10-10-10-10-10-10-7-7-7-7-7-7-10h12-12-|
d-2-2-2-2-2-2-2-2-5-5-5-5-5-5-5-5-10-10-10-10-10-10-10-10-7-7-7-7-7-7-10h12-12-|

Chorus 2
e---------------------------------------------------------------------------------|
b---------------------------------------------------------------------------------|
g---------------------------------------------------------------------------------|
d-2-2-2-2-2-2-2-2-5-5-5-5-5-5-5-5-10-10-10-10-10-10-10-10-5-6-7-5-6-7-5-6-7-5-6-7-|
a-2-2-2-2-2-2-2-2-5-5-5-5-5-5-5-5-10-10-10-10-10-10-10-10-5-6-7-5-6-7-5-6-7-5-6-7-|
d-2-2-2-2-2-2-2-2-5-5-5-5-5-5-5-5-10-10-10-10-10-10-10-10-5-6-7-5-6-7-5-6-7-5-6-7-|
            
Hard to play? Try these video lessons and learn fast. | Correct




comments powered by Disqus
↑ Back to top | Tablatures and chords are parodies/interpretations of the original songs. You may use it for private study, scholarship, research or language learning purposes only