>
 >
Bad Funk Stripe 1

Bad Funk Stripe 1 Guitar Tabs

Grinspoon - Bad Funk Stripe 1 chords, tabs, tablatures, lyrics

Guitar lessons | Add/correct | Request | Top 50 tabs Artists:  A B C D E F G H I J K L M N O P Q R S T U V W X Y Z 0-9

Bad Funk Stripe 1 Guitar Tabs – Grinspoon

CD, Sheet music, Poster

Do you like Bad Funk Stripe 1? Share with your friends now
Bass TabsTabsTabs v2Tabs v3
i didnt bother with the whole song coz the other tabs that i have seen for this
phat song were already at a satisfactory level but to be honest the solo woz
well below par so here is my 110% correct version. some of the timing is a bit 
lame and some of it is a little hard 2 understand but play it along with the cd
and youll get it.

e------------------------4bp3-5-3-2-0-----------------------------5--8-5------
B-4bp3---3---3h5-3--------------------3br--3-------------1------8-------------
G------5---5-------5b-2------------------5---5-2-----5-2----------------------
D------------------------------------------------5-2--------------------------
A-----------------------------------------------------------------------------
E-----------------------------------------------------------------------------

e---5-8-5--10h11p10----10h11p10----10h11p10----10h11p10----10h11p10-----
B-8-----------------13----------13----------13----------13----------13--
G-----------------------------------------------------------------------
D-----------------------------------------------------------------------
A-----------------------------------------------------------------------
E-----------------------------------------------------------------------

e-------------------------5---------------------------------------------5-----
B-8--8b-10-8-5----------5---5-------------------------------5-----8-----------
G--------------7-5-5-7-----------7-5-7---5b--------5-----7--------------------
D--------------------------------------7----7--5-7---5-7---5-7---5-7---5-7----
A-----------------------------------------------------------------------------
E-----------------------------------------------------------------------------

e-----5h8-5-8h10-8----8h10-8----8h10-8----8h10-8---------s14-12-11-10-10b--
B------------------10--------10--------10-----------8-10-------------------
G--------------------------------------------------------------------------
D-5-7----------------------------------------------------------------------
A--------------------------------------------------------------------------
E--------------------------------------------------------------------------

e-----------------------------------------------------------------------
B-10---13---10----------------------------------------------------------
G---12----12------8-7-5-------5b-----8-7-5b------5b-----------5b---5-7b-
D-----------------8-----7-5-7----7---8-----7-5-7----7-5---5-7----7------
A-------------------------------------------------------7---------------
E-----------------------------------------------------------------------

e------3-3b-----------------------------------------------------------------
B-5-5--------3h4p3---3h4p3---3h4p3---3h4p3---3h4p3---3h4p3---3---3----------
G------------------5-------5-------5-------5-------5-------5---5---5b-2---2-
D-----------------------------------------------------------------------5---
A---------------------------------------------------------------------------
E---------------------------------------------------------------------------

e-------------5-5-5-3-----------5-5-5-3---------------5-5-5-3-------------
B-----3b------5-5-5-3-4bp3------5-5-5-3-4bp3----------5-5-5-3-4bp3--------
G-5-2----5-----------------5-2---------------5-2-5-2---------------5-2----
D-------------------------------------------------------------------------
A-------------------------------------------------------------------------
E-------------------------------------------------------------------------

e-5-5-5-3---------------------------------------------------------------
B-5-5-5-5-4bp3----------------------------------------------------------
G---------------5-2---5~------------------------------------------------
D-------------------5---------------------------------------------------
A-----------------------------------------------------------------------
E-----------------------------------------------------------------------





Comments


Popular Grinspoon tabs & chords
Nbt Bass Tabs
Better Off Alone 1 Chords
Better Off Alone 2 Chords
All The Time Tabs
Chemical Heart Intro Tabs
Minute By Minute 2 Tabs
Repeat Tabs
Rock Show Tabs
Save Me 1 Tabs
Yarni Marni Tabs


Song lyrics



↑ Back to top | Tablatures and chords are parodies/interpretations of the original songs. You may use it for private study, scholarship, research or language learning purposes only
© 2014 AZChords.com Contact us | Privacy policy | DMCA | Add/correct tabs | Request tabs | Top 50 tabs