» » »

Bad Funk Stripe Tabs (ver.3)

Artists:  A B C D E F G H I J K L M N O P Q R S T U V W X Y Z # 

Bad Funk Stripe Tabs (ver.3)

Grinspoon
Rating:
0/5 (0 votes)

Hard to play? Try these video lessons and learn fast.
                BAD FUNK STRIPE
As recorded by Grinspoon
Words and Music by Philip Jamieson
Track Number: 14
Track Length: 4:41

Standard Tuning (low to high: E A D G B E)

Intro

(repeat w/ad lib 4 times)
|--3-3-3-3-3----3-3-3-3----0-0-0-0----0-0-0-0--|
|--3-3-3-3-3----3-3-3-3----1-1-1-1----1-1-1-1--|
|--0-0-0-0-0----0-0-0-0--2-2-2-2-2--0-0-0-0-0--|
|--0---0-0-0----0-0-0-0--2-2-2-2-2--2-2-2-2-2--|
|--2---2-2-2----x-x-x-x--0-0-0-0-0--3-3-3-3-3--|
|--3---3-3-3--2-2-2-2-2------------------------|

Chorus

w/finger style

|----------------------------3-----------3--------|
|------1-1p0---------1-------3-3-----3---3-3---3--|
|------------2-0---------0-------0-----------0----|
|----2-------------2---2--------------------------|
|--0---0---------3--------------------------------|
|--------------------------3-------2---2----------|


|---------------------------3s5s3------------3-------|
|-----1-1-0---------1-------3s5s3-3-----3----3-3---3-|
|-----------2-0---------0-----------0------------0---|
|---2-------------2---2------------------------------|
|-0---0---------3------------------------------------|
|-------------------------3-----------2----2---------|


Solo

w/wah

|-----------------------5s3-3h5-3-2-0-----------------------5-8-5-|
|---5s3---3---3h5-3-------------------3---3---------------8-------|
|-7-----5---5-------5-2-----------------5---5-2-------2-5---------|
|-7---------------------------------------------5-2-5-------------|
|-----------------------------------------------------------------|
|-----------------------------------------------------------------|

|---5h8-5-12p10----10----10-------10----10-------10----10-------10----|
|-8-------------13----13----13-13----13----13-13----13----13-13----13-|
|---------------------------------------------------------------------|
|---------------------------------------------------------------------|
|---------------------------------------------------------------------|
|---------------------------------------------------------------------|

|-10---------------------5-------------------------------------------5-|
|----13-8h10p8-5-------5---5-----------------------------5-----8-------|
|----------------7-5-7-------7-5-7---7-5-----5-----7-------------------|
|----------------------------------5-----5-7---5-7---5-7---5-7---5-7---|
|----------------------------------------------------------------------|
|----------------------------------------------------------------------|

|-----5h8-5-8h10-8----8h10-8----8h10-8----8h10-8---------s14-12-11-10-|
|------------------10--------10--------10--------10-8-10--------------|
|---------------------------------------------------------------------|
|-5-7-----------------------------------------------------------------|
|---------------------------------------------------------------------|
|---------------------------------------------------------------------|

|----------------------------------------------------------------------|
|-13-10----13----10--5------------------5------------------------------|
|-------12----12-------7-5-------5--------7-5------5-----------5---5h7-|
|--------------------------7-5-7---7-5-------7-5-7---7-5---5-7---7-----|
|--------------------------------------------------------7-------------|
|----------------------------------------------------------------------|

|---3h5p3---------------------------------------------------------------|
|-5-------3h5p3---3h5p3---3h5p3---3h5p3---3h5p3---3h5p3---3---3---------|
|---------------5-------5-------5-------5-------5-------5---5---5-2---2-|
|-------------------------------------------------------------------5---|
|-----------------------------------------------------------------------|
|-----------------------------------------------------------------------|

|-------------5-5-5-3-----------5-5-5-3---------------5-5-5-3---------|
|-----5-3-----5-5-5-5-3h5p3-----5-5-5-5-3h5p3---------5-5-5-3h5p3-----|
|-5-2-----5-2---------------5-2---------------5-2-5-2-------------5-2-|
|---------------------------------------------------------------------|
|---------------------------------------------------------------------|
|---------------------------------------------------------------------|

|-5-5-5-3---------------|
|-5-5-5-5-3h5p3---------|
|---------------5-2-0-5-|
|-----------------------|
|-----------------------|
|-----------------------|


Outro

w/dist.
|--------------------------------|
|--------------------------------|
|--------------------------------|
|-7-7-7-7--10-10-10-10--5-5-5-5--|
|-7-7-7-7--10-10-10-10--5-5-5-5--|
|-5-5-5-5--8--8--8--8---3-3-3-3--|
            
Hard to play? Try these video lessons and learn fast. | Correct




comments powered by Disqus
↑ Back to top | Tablatures and chords are parodies/interpretations of the original songs. You may use it for private study, scholarship, research or language learning purposes only