» » »

Shoot To Kill Tabs (ver.1)

Artists:  A B C D E F G H I J K L M N O P Q R S T U V W X Y Z # 

Shoot To Kill Tabs (ver.1)

Greyhoundz
Rating:
5/5 (3 votes)

Hard to play? Try these video lessons and learn fast.
                pages/Arista-Lucena/226729694026830


GtrI - Drop B -(B F# B E G# C#) - 09283150081

Intro-
GtrI
C#|-------------------------------------------------------------------|
G#|-------------------------------------------------------------------|
 E|-------------------------------------------------------------------|
 B|-0-x-0-x-0-x-0-x--2h3-2h3-2h3---0-x-0-x-0-x-0-x----2h3-2h3-2h3-----|2x
F#|-0-x-0-x-0-x-0-x----------------0-x-0-x-0-x-0-x--------------------|
 B|-0-x-0-x-0-x-0-x----------------0-x-0-x-0-x-0-x--------------------|

Verse-
GtrI
C#|--------------------------------------------|
G#|--------------------------------------------|
 E|--------------------------------------------|
 B|-0---------------5555--3---------------8888-|3x
F#|-0--0-3-33-22-22-5555--3--3-7-77-55-55-8888-|
 B|-0--0-3-33-22-22-5555--3--3-7-77-55-55-8888-|
       * * ** ** **          * * ** ** **
C#|-------------------------------------------|
G#|-------------------------------------------|
 E|-------------------------------------------|
 B|-333-777-5555-888b--777-101010-8888-10b+---|
F#|-------------------------------------------|
 B|-------------------------------------------|

Chorus-Do 2x

C#|-----------------------------------------------------|
G#|-----------------------------------------------------|
 E|-----------------------------------------------------|
 B|-0-0----------0-0---------0-0--------0---------------|
F#|-0-0-00-3h5---0-0-00-3h5--0-0-00-3h5-0--33-22-22-----|
 B|-0-0-00-------0-0-00------0-0-00-----0--33-22-22-----|
        **           **          **        ** ** **
C#|-----------------------------------------------------|
G#|-----------------------------------------------------|
 E|-----------------------------------------------------|
 B|-0-0----------0-0---------0-0--------0---------------|
F#|-0-0-00-3h5---0-0-00-3h5--0-0-00-3h5-0---3+-2+-5+----|
 B|-0-0-00-------0-0-00------0-0-00-----0---------------|
        **           **          **

then
Do intro-

Do verse-

Do chorus-

cp#- 09283150081 txt for free lessons-ung malapit ang bahay sa Lucena(how to tune to 
B,to play)
C#|-------------------------------------------------------------------|
G#|-------------------------------------------------------------------|
 E|-------------------------------------------------------------------|
 B|-0-x-0-x-0-x-0-x--2h3-2h3-2h3---0-x-0-x-0-x-0-x----2h3-2h3-2h3-----|
F#|-0-x-0-x-0-x-0-x----------------0-x-0-x-0-x-0-x--------------------|
 B|-0-x-0-x-0-x-0-x----------------0-x-0-x-0-x-0-x--------------------|


C#|-------------------------------------------------------------------|
G#|-------------------------------------------------------------------|
 E|-------------------------------------------------------------------|
 B|-0-x-0-x-0-x-0-x--2h3-2h3-2h3---0-x-0-x-0-x-0-x----2h3-2h3-2h3-/-\-|2x
F#|-0-x-0-x-0-x-0-x----------------0-x-0-x-0-x-0-x----------------/-\-|
 B|-0-x-0-x-0-x-0-x----------------0-x-0-x-0-x-0-x----------------/-\-|

Interlude-
C#|--------------------------------------------------------------------------|
G#|--------------------------------------------------------------------------|
 E|--10101010101010-777--1313131313-777---10101010101010-777--1313131313-777-|
 B|--------------------------------------------------------------------------|
F#|--8-8-8-8-8-8-8--555--1111111111-555---8-8-8-8-8-8-8--555--1111111111-555-|
 B|--------------------------------------------------------------------------|

C#|----------------------------------------------------------------------------------|
G#|----------------------------------------------------------------------------------|
 E|--10101010101010-777--1313131313-777---10101010101010-777--1313131313-------------|
 B|----------------------------------------------------------------------------------|
F#|--8-8-8-8-8-8-8--555--1111111111-555---8-8-8-8-8-8-8--555--1111111111-7h8-7h8-7h8-|
 B|----------------------------------------------------------------------------------|

Bridge-
C#|-------------------------------------------------------|
G#|-------------------------------------------------------|
 E|-------------------------------------------------------|
 B|-3-3-0-0-xx--6-6-0-0-xx----3-3-0-0-xx--6-6-0-0-xx------|2x
F#|-3-3-0-0-xx--6-6-0-0-xx----3-3-0-0-xx--6-6-0-0-xx------|
 B|-3-3-0-0-xx--6-6-0-0-xx----3-3-0-0-xx--6-6-0-0-xx------|

 09283150081
C#|-----------------------------------------------------------------------|
G#|-----------------------------------------------------------------------|
 E|-----------------------------------------------------------------------|
 B|-----------------------------------------------------------------------|
F#|-0-3333333-00000000-6666666-00000000-3333333-00000000-6666666-00000000-|
 B|-0-3333333-00000000-6666666-00000000-3333333-00000000-6666666-00000000-|
    * ******* ***  **  ******* ***  **  ******* ***  **  ******* ***  **

C#|---------------------------------------|
G#|---------------------------------------|
 E|---------------------------------------|
 B|---------------------------------------|
F#|-0-3333333-00000000-6666666-00000000---|
 B|-0-3333333-00000000-6666666-00000000---|
    * ******* ***  **  ******* ***  **

C#|--------------------------------------------------------|
G#|--------------------------------------------------------|
 E|--------------------------------------------------------|
 B|---------0-0--3-2----3-2----3-------------------0-------|
F#|-3333333-0-0------3------3----3--5-6-5-3-5--0---0-------|
 B|-3333333-0-0----------------------------------6-0-------|
    *******      * * *  * * *  * *  * * * * *  * *
then
LAst Verse
GtrI
C#|--------------------------------------------|
G#|--------------------------------------------|
 E|--------------------------------------------|
 B|-0---------------5555--3---------------8888-|
F#|-0--0-3-33-22-22-5555--3--3-7-77-55-55-8888-|
 B|-0--0-3-33-22-22-5555--3--3-7-77-55-55-8888-|
       * * ** ** **          * * ** ** **

C#|--------------------------------------------|
G#|--------------------------------------------|
 E|--------------------------------------------|
 B|-0--0-3-33-22-22-5555--3--3-7-77-55-55-8888-|
F#|--------------------------------------------|
 B|--------------------------------------------|

C#|--------------------------------------------|
G#|--------------------------------------------|
 E|--------------------------------------------|
 B|-0---------------5555--3---------------8888-|
F#|-0--0-3-33-22-22-5555--3--3-7-77-55-55-8888-|
 B|-0--0-3-33-22-22-5555--3--3-7-77-55-55-8888-|
       * * ** ** **          * * ** ** **

C#|-------------------------------------------|
G#|-------------------------------------------|
 E|-------------------------------------------|
 B|-333-777-5555-888b--777-101010-8888-10b+---|
F#|-------------------------------------------|
 B|-------------------------------------------|


Do Chorus-

add
-----------------|
-----------------|
-----------------|
-0-0-0-0-0-0-0-/-|
-0-0-0-0-0-0-0-/-|
-0-0-0-0-0-0-0-/-|

then

C#|-------------------------------------------------------------------|
G#|-------------------------------------------------------------------|
 E|-------------------------------------------------------------------|
 B|-0-x-0-x-0-x-0-x--2h3-2h3-2h3---0-x-0-x-0-x-0-x----2h3-2h3-2h3-----|2x
F#|-0-x-0-x-0-x-0-x----------------0-x-0-x-0-x-0-x--------------------|
 B|-0-x-0-x-0-x-0-x----------------0-x-0-x-0-x-0-x--------------------|

 09283150081
C#|-------------------------------------------------|
G#|-------------------------------------------------|
 E|-------------------------------------------------|
 B|--0-0--3-2----3-2----3---------------------------|
F#|--0-0------3------3----3--5-6-5-3-5--0-----------|
 B|--0-0----------------------------------6---------|
          * * *  * * *  * *  * * * * *  * *

C#|-------------------------------------------------|
G#|-------------------------------------------------|
 E|-------------------------------------------------|
 B|----3-2----3-2----3--------------------0---------|
F#|--------3------3----3--5-6-5-3-5--0----0---------|
 B|------------------------------------6--0---------|
       * * *  * * *  * *  * * * * *  * *

cp#- 09283150081 txt for free lessons-ung malapit ang bahay sa Lucena(how to tune to 
B,to play)

Lyrics
Here's what is waiting fine
Enough of the nights
We need the cushion
How high we've fallen
Trying to make it right

Turn my life
So get rid of those sweat
Is on your eyes
We need a room
Much brighter tonight
See how much you've wasted us
So just now is this time

Chorus:
You're doomed!
Do you shoot to kill?
Do you shoot to kill?
Uh what?
Now Shoot!
(Repeat 3x)
Do you shoot to kill?
Do you shoot to kill?
Uh what?
Attention!
I'll let your worn be.

We die for the drama
That abuses the most
So reap this pyro piece
Of space of peace and quiet
That I have hope for
I hope

Make it an enter for two
Into what its time to us to be
High low
Shoot back say hi
How can you miss your mark
I'm only an inch wide

(Repeat Chorus)


Let it bleed!
Let it bleed!

Sheds the name
Bring out the smoke
Sheds the kill
Bring out the swing
(Repeat 2x)

Sing me a song of resolution
Stop hanging in the news
I'd like to move a lot
And serenade you

Don't just hang in
Coz it makes you feel good
We'll make up much this ambiguous
This is our saga
This is our circus

(Repeat Chorus)
            
Hard to play? Try these video lessons and learn fast. | Correct




comments powered by Disqus
↑ Back to top | Tablatures and chords are parodies/interpretations of the original songs. You may use it for private study, scholarship, research or language learning purposes only