» » »

Greyhoundz, Shoot To Kill Bass tabs (ver.2)

Artists:  A B C D E F G H I J K L M N O P Q R S T U V W X Y Z # 

Shoot To Kill Bass tabs (ver.2)

Greyhoundz Tabs
 Rating:
4/5 (4 votes)
Shoot To Kill lessons Tabs too difficult? Try these video lessons and learn fast
                SHOOT TO KILL (bass tab)

STANDARD TUNING

*NOTE:
The original tuning of this song is drop B 1½ step down if I’m not mistaken. This song
played on a 5-string bass guitar. It’s up to you on how you play it, I didn’t put any
on what parts you will tap, slap, pull,etc. Just listen to the song very well. This is 
100 percent accurate. This is just an alternative, if you don’t have a 5-string guitar and
you don’t want to tune down, you can try this version. It does not sound as heavy as the 
but you can experiment on bass effects to make it sound more solid.

For comments and corrections, please send it to my email. I would really appreciate it. 
you.

INTRO:
G||-------3h4-3h4-3h4----|
D||----------------------| (4X)
A||--2222-1h2-1h2-1h2----|
E||----------------------|

VERSE:
G||-----------------------------------------|
D||-----------------------------------------|
A||--2222--555544--777755--999977--10101010-|
E||-----------------------------------------|
							(2X)
  |--------------------------------------------------------------|
  |--9999--1212121211--141414141212--161616161414—17171717\------|
  |--------------------------------------------------------------|
  |--------------------------------------------------------------|

CHORUS:
G||---------1x-----------|
D||----------------------| (4X)
A||--22—2h4----5555444---|
E||----2-----------------|

INTRO
VERSE
CHORUS
INTRO (CUT)

G||----------------------|
D||----------------------|
A||--8\------------------|
E||----------------------|

BRIDGE:
G||---------------------------------------------|
D||------2h4-----2x------------2h4-5x-2x--------| (2X)
A||--2h4-----2h4---4-2h4--2h4----------4h2-2h4--|
E||---------------------------------------------|

G||------4h6------------------------------------------5x--6x--7\-----------3h4-3h4-3h4---|
D||--4h6-----4h6-----2x---2x-5x-2x-----------6x--8x----------------5555555---------------|
A||--------------2h4---2h4--------4h2-2h4------------3---4---5-------------1h2-1h2-1h2---|
E||-----------------------------------------4---6----------------------------------------|

G||----7x-------x----10x-------x-|      |----------------------------------|
D||-------------x--------------x-| (4X) |----------------------------------| (4X)
A||--5---5------x--8----8------x-|      |--------555555--------888888------|
E||--------7-7--x---------7-7--x-|      |--777777--------777777------------|

G||------------------------------|
D||------------------------------|
A||------54--54--5---------9-7---|
E||--7-7---5---5--5-797575----7--|*continue to verse

VERSE

G||---------------------|
D||---------------------|
A||--22222222-----------|
E||---------------------|

CHORUS
OUTRO:
G||-------3h4-3h4-3h4--------------|
D||--------------------------------| (2X)
A||--2222-1h2-1h2-1h2--------------|
E||--------------------------------|

G||--------------------------------|
D||--------------------------------| (2X)
A||------54--54--5---------9-7-----|
E||--7-7---5---5--5-797575----7----|
end....
*para sa hilig ni kim...
 --------grrreggy boi
            
Submit corrections

comments powered by Disqus
↑ Back to top | Greyhoundz Bass for Shoot To Kill. Lyrics for acoustic guitar and electric guitar. Tablatures and chords are parodies/interpretations of the original songs. You may use it for private study, scholarship, research or language learning purposes only