>
 >
Apoy 2

Apoy 2 Guitar Tabs

Greyhoundz - Apoy 2 chords, tabs, tablatures, lyrics

Guitar lessons | Add/correct | Request | Top 50 tabs Artists:  A B C D E F G H I J K L M N O P Q R S T U V W X Y Z 0-9

Apoy 2 Guitar Tabs – Greyhoundz

CD, Sheet music, Poster

Do you like Apoy 2? Share with your friends now
Bass TabsTabsTabs v2Tabs v3
                
                       "APOY"BY:GREYHOUNDZ

                      
dropped D  USE THICK DIST.  
intro: (guitar riffs)X3     then proceed here
D|----------------------  ---------------------------------------|b
A|----------------------  ---------------------------------------|r
F|----------------------  -------------------3-3-3-3-6-6-6-6-5-5-|e
C|----------------------  -3-3-3-3-5-5-5-5-5-3-3-3-3-6-6-6-6-5-5-|a
G|-3-3-3-3-3-3-3-3-3-3--  -3-3-3-3-5-5-5-5-5-1-1-1-1-4-4-4-4-3-3-|k
D|-1-1-1-1-1-1-1-1-1-1--  -1-1-1-1-3-3-3-3-3---------------------|
 
intro: (bass riffs) X4
D|---------------------------------------------------|
A|---------------------------------------------------|
F|---------------------------------------------------|
C|---------------------------------------------------|
G|-------------------1-1-1-1--4-4-4-4--3-3-3-3-------|
D|-1-1-1-1--3-3-3-3----------------------------------|

 Tatalon ka na ba...
D|-------------------------------- ---------------------|
A|-------------------------------- ---------------------|
F|-------------------------------- -2-2---2-2---2-2-2-2-|
C|-5-5---5-5---5-5-5-5---5-5------ -2-2-x-2-2-x-2-2-2-2-|
G|-5-5-x-5-5-x-5-5-5-5-x-5-5-3-2-- -0-0-x-0-0-x-0-0-0-0-|
D|-3-3-x-3-3-x-3-3-3-3-x-3-3-3-2-- ---------------------|

 Lunod!...   X4
D|-------------------------------------------|
A|-------------------------------------------|
F|-------------------------------------------|
C|-------------------------------------------|
G|-4/3--3-3-x-3-3---4/3--3-3-x-3-3--4/3------|
D|-2/1--1-1-x-1-1---2/1--1-1-x-1-1--2/1------|

 Sunog lang ng sunog...  X4           then proceed here
D|---------------------------------| -----------------|
A|---------------------------------| -----------------|
F|---------------------------------| -----------------|
C|---------------------------------| -4-4--6-6-9/8---|
G|---------------------------------| -2-2--4-4-7/6---|
D|-3-3-3-3-3-37h6-7-9h8----------| -----------------|
 Pm .. . . .. .. . . .. . . . .. . . . . .

Kapit ng mahigpit...  X8
D|--------------------------------------|
A|--------------------------------------|
F|--------------------------------------|
C|--------------------------------------|
G|---6/5---6-6-6-6-----6/5--------------|
D|---4/3b--4-4-4-4-----4/3b--3b---------|

          X4
D|----------------------------------------|
A|----------------------------------------|
F|----------------------------------------|
C|--4-3--4-4-4-4----5-3--4-4-4-4----------|
G|--2-1--2-2-2-2----3-1--2-2-2-2----------|
D|----------------------------------------|

  Adlib:    X3 (do it fast)
D|-------------------------------------------|
A|-------------------------------------------|
F|---------9----------------------10---------|
C|-------8-----9---8---9--------9------------|
G|-7/9-9-----8---7---9-----9--7--------------|
D|-------------------------------------------|
   Pm...........................................
                  X2
D|---------------------------------------------------|
A|-------------------------10-------12-----9------11-|
F|--------11-------10----9-------11------8-----10----|
C|-----10--------9----10------12-------9-----11------|
G|--11--------10-------------------------------------|
D|---------------------------------------------------|
   Pm...........................................

D|-------------------------------------|
A|-------------------------------------|
F|-------------------------------------|
C|-3-3-3-3-4-4-4-4-5-5-5-5-4-4-4-------|
G|-3-3-3-3-4-4-4-4-5-5-5-5-4-4-4-------|
D|-1-1-1-1-2-2-2-2-3-3-3-3-2-2-2-------|
   
 Ba't ka ba nagpapasunog sa sarili mong apoy... X8
D|-------------------------------------|
A|-------------------------------------|
F|-------------------------------------|
C|-------------------------------------|
G|-2-2-2-3-3-3-4-4-4-7-7-7-6-6-6-------|
D|-0-0-0-1-1-1-2-2-2-5-5-5-4-4-4-------|

   Outro:
D|-------------------------------------|
A|-------------------------------------|
F|-------------------------------------|
C|--4/3-4-x-4-4---5/3--4-4-------------|
G|--2/1-2-x-2-2---3/1--2-2-------------|
D|-------------------------------------|
   just follow the sequence,all is there
             <<<>>>





Comments


Popular Greyhoundz tabs & chords
Hole Bass Tabs
Im Your Puppetz And Clown Bass Tabs
Karmic Bass Tabs
Doble Kara 1 Tabs
Doble Kara Intro 1 Tabs
Even Tabs
Hinahanap Tabs
Ode Tabs
Party 802 Intro Tabs
Your Puppet And Clown Tabs


Song lyrics



↑ Back to top | Tablatures and chords are parodies/interpretations of the original songs. You may use it for private study, scholarship, research or language learning purposes only
© 2014 AZChords.com Contact us | Privacy policy | DMCA | Add/correct tabs | Request tabs | Top 50 tabs