>
 >
Apoy

Apoy Guitar Tabs

Greyhoundz - Apoy chords, tabs, tablatures, lyrics

Guitar lessons | Add/correct | Request | Top 50 tabs Artists:  A B C D E F G H I J K L M N O P Q R S T U V W X Y Z 0-9

Apoy Guitar Tabs – Greyhoundz

CD, Sheet music, Poster

Do you like Apoy? Share with your friends now
Bass TabsTabsTabs v2Tabs v3
Album:Apoy
              09229015724(Sun Cell)

Gtr.Legends:
x - DEAD STRING
. - PALM MUTING
~ - LET IT RING
p - PULL-OFF
/ - SLIDE

Gtr.Tuning:Drop D

Intro:
e|----------------------      -------------------|
B|----------------------      -------------------|
G|---------------------- 3x   -------------------|
D|-444-000-55-44-77-55-- Then -444-000-55-44-7---|
A|-444-000-55-44-77-55--      -444-000-55-44-7---|
D|-444-000-55-44-77-55--      -444-000-55-44-7---|
   ... ... .. .. .. ..         ... ... .. .. .

Verse:
Tatalon kana ba a sinasakyan...
e|-----------------------------------------------------------------------|
B|-----------------------------------------------------------------------|
G|-----------------------------------------------------------------------| 2x
D|-44x4x4x4x4x4--22222-00000---2/4-0-0--2-2-2-4/5---2/4-0-0--2-2-2-4/5---|
A|-22x2x2x2x2x2--22222-00000---2/4-0-0--2-2-2-4/5---2/4-0-0--2-2-2-4/5---|
D|---------------22222-00000---2/4-0-0--2-2-2-4/5---2/4-0-0--2-2-2-4/5---|
   . . . . . .                     . .  . . .   .       . .  . . .   .   

Pre-Chorus:
Sunog lang ng sunog...
e|------------------------------------------------      ------------|
B|------------------------------------------------ 2x   ------------|
G|------------------------------------------------ Then ------------|
D|-2/4--44444-4/5p4--2222-2/4--44444-4/5p4--2222--      -4\3--7\6---|
A|-2/4--44444-4/5p4--2222-2/4--44444-4/5p4--2222--      -2\1--5\4---|
D|-2/4--44444-4/5p4--2222-2/4--44444-4/5p4--2222--      ------------|

Chorus:
Kapit ng mahigpit...
e|------------------------------      ---------------------|
B|------------------------------ 4x   ---------------------|
G|------------------------------ Then ---------------------|
D|-9-5-7-4-8/9--4-0-9--4-4-5-9--      -9-5-7-8/9--4-0-9~---|
A|-9-5-7-4-8/9--4-0-9--4-4-5-9--      -9-5-7-8/9--4-0-9~---|
D|-9-5-7-4-8/9--4-0-9--4-4-5-9--      -9-5-7-8/9--4-0-9~---|

Repeat Intro 2x:

Repeat Verse:

Repeat Pre-Chorus:

Repeat Chorus:

Bridge prt.1(after the bass solo):I'm quite sure here...
e|----------------------------------------------------------|
B|----------------------------------------------------------|
G|----------------------------------------------------------| 2x Then
D|-------9---5---7---5---7---9----2----1--------------------|
A|-----9---7---5---5---5---5---22---22---22-4-33-4-22-4-2---|
D|-5/9------------------------------------------------------|
       . . . . . . . . . . . . .. . ..   .. . .. . .. . .

e|---------------------------------------|
B|---------------------------------------|
G|---------------------------------------|
D|-------9---5---7---5---7---2222-0000---|
A|-----9---7---5---5---5---5-2222-0000---|
D|-5/9-----------------------2222-0000---|
       . . . . . . . . . . . 

Bridge prt.2:
Tulong,pahingi ng gamot...
e|-------------------------------------------|
B|-------------------------------------------|
G|-------------------------------------------| 
D|-2/4-0-0--2-2-2-4/5---2/4-0-0--2-2-2-4/5---|
A|-2/4-0-0--2-2-2-4/5---2/4-0-0--2-2-2-4/5---|
D|-2/4-0-0--2-2-2-4/5---2/4-0-0--2-2-2-4/5---|
       . .  . . .           . .  . . .
     
Bridge prt.3(after bass solo):
Bakit kaba nag-papasunog sa sarili mong apoy...
e|----------------------      -------------------|
B|----------------------      -------------------|
G|---------------------- 4x   -------------------|
D|-444-000-55-44-77-55-- Then -444-000-55-44-7---|
A|-444-000-55-44-77-55--      -444-000-55-44-7---|
D|-444-000-55-44-77-55--      -444-000-55-44-7---|
   ... ... .. .. .. ..         ... ... .. .. .

Repeat Chorus:

Huwag kang bumitaw
e|----------|
B|----------|
G|----------|
D|-4-0-9~---|
A|-4-0-9~---|
D|-4-0-9~---|

Last Chords:
e|----------------------|
B|----------------------|
G|----------------------|
D|-2/4--0-0-2-2-2-4/5---|
A|-2/4--0-0-2-2-2-4/5---|
D|-2/4--0-0-2-2-2-4/5---|
        . . . . .   .

End...

  I would like to greet first offcourse my ONLY ONLY ONE,then;my relatives,my
friends on Montalban(Brgy.Balite Espiritu Subd.),My traitor friends in our school
NSDAPS San Mateo Rizal,Cocklosas,Cocklisay.Cocktabijan,Cockpistrano,Cockyatano,Cockruz,
Franciscock,Picock,Fuckmittan,Redick,Simbulbulan,Frondosuso,Bayagin,Titesta,Aldick,and many
moore,our band club(COMBO-RATS),Project X,To all my txt mates and other companie,Red Porn Records,
My friends in YM and Friendster,and most of all,hi to God..

Padre Garrote:          Extra:

Dino Testa:Vocals       Andrei Frondoso:Xylophone,Triangles,Flute and Tamborine           
Edy Capistrano:Gtr.1    Mike Alvez:Sub-Guitar                               
Jiro Uezono:Gtr.2      
Ryan Manongdo:Bass       
Aeroll Cayetano:Drums   





Comments


Popular Greyhoundz tabs & chords
Pig Face 1 Bass Tabs
Doble Kara 3 Tabs
Doble Kara Intro 1 Tabs
Dragon Flies Tabs
Ginoong Baboy Tabs
Leech 1 Tabs
Mr Pig 1 Tabs
Mr. P.I.G. Tabs
Party @ 8:02 Tabs
Pig Face Tabs


Song lyrics



↑ Back to top | Tablatures and chords are parodies/interpretations of the original songs. You may use it for private study, scholarship, research or language learning purposes only
© 2014 AZChords.com Contact us | Privacy policy | DMCA | Add/correct tabs | Request tabs | Top 50 tabs