» » »

Blue Eyes Tabs (ver.2)

Artists:  A B C D E F G H I J K L M N O P Q R S T U V W X Y Z # 

Blue Eyes Tabs (ver.2)

Good Shoes
Rating:
5/5 (4 votes)

Hard to play? Try these video lessons and learn fast.
                -------------------------------------------------------------------------------
                             Blue Eyes – Good Shoes
-------------------------------------------------------------------------------

1st ever tab think it sounds pretty accurate, there no other tab for it on here.

Tuning: Standard
1st guitar played throughout the song, strum repetedly listen to the song to work out the rythm
e|----------------------------------------------------------------------------------|
B|----------------------------------------------------------------------------------|
G|-------11------9-------6------7---------------------------------------------------|
D|-------12------11------7------9---------------------------------------------------|
A|----------------------------------------------------------------------------------|
E|----------------------------------------------------------------------------------|
2nd guitar
e|------------------7-10-7----------------|
B|-------------6/7-----------------7-7-5--|                                    x2
G|-------7-7-9----------------------------|
D|----------------------------------------|
A|----------------------------------------|
E|----------------------------------------|

e|---------------------------------------------------------------------------------|
B|---------------------------------------------------------------------------------|
G|------7-7-9-9-7-9----7----7--------7-7-7-9-9-9-9-9-x2-------7-7-7-7-7------------|
D|-----------------9-9----9-----------------------------9-9-9----------------------|x2
A|---------------------------------------------------------------------------------|
E|---------------------------------------------------------------------------------|

Please rate!
Any comments please contact me

| /  slide up
| \  slide down
| h  hammer-on
| p  pull-off
| ~  vibrato
| +  harmonic
| x  Mute note
===============================================================================
            
Hard to play? Try these video lessons and learn fast. | Correct




comments powered by Disqus
↑ Back to top | Tablatures and chords are parodies/interpretations of the original songs. You may use it for private study, scholarship, research or language learning purposes only