» » »

Blue Eyes Tabs (ver.1)

Artists:  A B C D E F G H I J K L M N O P Q R S T U V W X Y Z # 

Blue Eyes Tabs (ver.1)

Good Shoes
Rating:
5/5 (2 votes)
Tabs too difficult? Try these video lessons and learn fast.
                -------------------------------------------------------------------------------
-------------------------------------------------------------------------------
Listen to the song to get strumming correct.
(The number of times i've noted down that the notes/chords are played may not be 
but they are the correct notes/chords.)


Tuning:Standard EADGBe

Guitar II (This riff is played just about all the way throughout the song)
e|--------------------------------------------------------------------------|
B|--------------------------------------------------------------------------|
G|-111111111111111111111111-9--666-777-666-777------------------------------|
D|-121212121212121212121212-11-777-999-777-999------------------------------|
A|--------------------------------------------------------------------------|
E|--------------------------------------------------------------------------|
Guitar I
e|---------------------------------------------------------------------------|
B|------------12-15-12-----------------------12-15-12------------------------|
G|-7-7-9-9\11----------11-11-9\7--7-7-9-9/11----------11-11-9\7--7-7-9-9-7-9-|
D|---------------------------------------------------------------------------|
A|---------------------------------------------------------------------------|
E|---------------------------------------------------------------------------|

e|--------------------------------------------------------------------------|
B|--------------------------------------------------------------------------|
G|-----7-7---7\--7779999-7779999-----7777---7777----------------------------|
D|-9-9-----9--------------------999---999-----------------------------------|
A|--------------------------------------------------------------------------|
E|--------------------------------------------------------------------------|
Guitar I
   D        A  Bm      A                      A  Bm             D
e|-10-------5--7-------5----------------------5--7--------------10----------|
B|-10-------5--7-------5--(Guitar II)---------5--7--(Guitar II)-10----------|
G|-11-------6--7-------6----------------------6--8--------------11----------|
D|-12-------7--9-------7----------------------7--9--------------12----------|
A|-12-------7--9-------7----------------------7--9--------------12----------|
E|-10-(x16)-5--7-(x16)-5--(end on a D)(X15)---5--7--------------10----------|

It's just that bit ^^ all the way through then this bit ^^ when it changes.
Enjoy.


| /  slide up
| \  slide down
| h  hammer-on
| p  pull-off
| ~  vibrato
| +  harmonic
| x  Mute note
===============================================================================
            
Tabs too difficult? Try these video lessons and learn fast.


comments powered by Disqus
↑ Back to top | Tablatures and chords are parodies/interpretations of the original songs. You may use it for private study, scholarship, research or language learning purposes only