>
 >
Open Your Eyes 1

Open Your Eyes 1 Guitar Tabs

Goldfinger - Open Your Eyes 1 chords, tabs, tablatures, lyrics

Guitar lessons | Add/correct | Request | Top 50 tabs Artists:  A B C D E F G H I J K L M N O P Q R S T U V W X Y Z 0-9

Open Your Eyes 1 Guitar Tabs – Goldfinger

CD, Sheet music, Poster

Do you like Open Your Eyes 1? Share with your friends now
Bass TabsBass Tabs v2ChordsTabsTabs v2Tabs v3Tabs v4Tabs v5
Goldfinger - Open Your Eyes

E----------------------------------------------------------------------
B----------------------------------------------------------------------
G----------------------------------------------------------------------
D------------------------------------------------------------9*9*9*----
A-------2-2-2-2-2-------5-5-5-5-5-------2-2-2-2-2-------5-5------------
E-0-0-0-----------3-3-3-----------0-0-0-----------3-3-3----------------
Palm-mute 									Harmonics

Repeat below 2x with distortion
E----------------------------------------------------------------------
B----------------------------------------------------------------------
G-------4-4-4-4-4-------7-7-7-7-7--------------------------------------
D-2-2---4-4-4-4-4-5-5---7-7-7-7-7--------------------------------------
A-2-2---2-2-2-2-2-5-5---5-5-5-5-5--------------------------------------
E-0-0-------------3-3--------------------------------------------------

Repeat below 4x with palm-muting
E----------------------------------------------------------------------
B----------------------------------------------------------------------
G----------------------------------------------------------------------
D----------------------------------------------------------------------
A-------2-2-2-2-2-------5-5-5-5-5--------------------------------------
E-0-0-0-----------3-3-3------------------------------------------------

Open your eyes to the millions of lies that they tell you everyday
Open your mind to the clever disguise that the advertisements say

E----------------------------------------------------------------------
B----------------------------------------------------------------------
G----------------------------------------------------------------------
D----------------------------------------------------------------9*9*9*
A-3-3-3-3-3-3-3-3-3-3-3-3-3-3-3-3-3-2-2-2-2-2-2-2-2-2-2-2-2-2-2-2------
E----------------------------------------------------------------------
								              Harmonics
How do they know what's good for you?

Repeat below 4x with distortion
E----------------------------------------------------------------------
B----------------------------------------------------------------------
G-------4-4-4-4-4-------7-7-7-7-7--------------------------------------
D-2-2---4-4-4-4-4-5-5---7-7-7-7-7--------------------------------------
A-2-2---2-2-2-2-2-5-5---5-5-5-5-5--------------------------------------
E-0-0-------------3-3--------------------------------------------------

Wake up! Wake up! Woah!
Wake up! Wake up! Woah!
A shot to the head
And an animal's dead
Will you wake up wake up woah?

Repeat below 4x with palm-muting

Guitar 2 plays below notes at start of 3rd repeat
E-12----
B---12--

E----------------------------------------------------------------------
B----------------------------------------------------------------------
G----------------------------------------------------------------------
D----------------------------------------------------------------------
A-------2-2-2-2-2-------5-5-5-5-5--------------------------------------
E-0-0-0-----------3-3-3------------------------------------------------

Scuttle the land
And kill what you can just to make the profits rise
Sell you from birth for all that you're worth
The money spreads like lies

E------(12)----(12)----(12)----(12)----(12)----(12)----(12)----(12)----
B----------(12)----(12)----(12)----(12)----(12)----(12)----(12)--------
G----------------------------------------------------------------------
D-----------------------------------------------------------------9*9*9*
A-3-3-3-3-3-3-3-3-3-3-3-3-3-3-3-3-3-2-2-2-2-2-2-2-2-2-2-2-2-2-2-2------
E----------------------------------------------------------------------

And how do they know what's good for you?

Repeat below 4x with distortion
E----------------------------------------------------------------------
B----------------------------------------------------------------------
G-------4-4-4-4-4-------7-7-7-7-7--------------------------------------
D-2-2---4-4-4-4-4-5-5---7-7-7-7-7--------------------------------------
A-2-2---2-2-2-2-2-5-5---5-5-5-5-5--------------------------------------
E-0-0-------------3-3--------------------------------------------------

Wake up! Wake up! Woah!
Wake up! Wake up! Woah!
A shot to the head
And an animal's dead
Will you wake up wake up woah?

Bridge
Lots of distortion 
(play random pinch harmonics on the high E and end with notes below)
E-12----12----12----12-------------------------------------------------
B----12----12----12----------------------------------------------------
G----------------------------------------------------------------------
D----------------------------------------------------------------------
A----------------------------------------------------------------------
E----------------------------------------------------------------------

Run!

Repeat below 2x with palm-muting
E----------------------------------------------------------------------
B----------------------------------------------------------------------
G----------------------------------------------------------------------
D----------------------------------------------------------------------
A-------2-2-2-2-2-------5-5-5-5-5--------------------------------------
E-0-0-0-----------3-3-3------------------------------------------------

Don't wanna hate you
Don't wanna blame it all on you

E----------------------------------------------------------------------
B----------------------------------------------------------------------
G-4-4------------------------------------------------------------------
D-4-4-let ring--------let up on hand-----------------------------------
A-2-2---2-2-2-2-2-------5-5-5-5-5--------------------------------------
E(0)(0)(0)-------(3)(3)(3)---------------------------------------------

Out of options
If you don't look I'll force you to

E----------------------------------------------------------------------
B----------------------------------------------------------------------
G-4-4------------------------------------------------------------------
D-4-4----------------------------------9*9*9*9*------------------------
A-2-2---2-2-2-2-2-------5-5-5-5-5--------------------------------------
E(0)(0)(0)--------3-3-3------------------------------------------------
						   Harmonics
If you don't look I'll force you to
If you don't look I'll force you to

Repeat below 4x with distortion
E----------------------------------------------------------------------
B----------------------------------------------------------------------
G-------4-4-4-4-4-------7-7-7-7-7--------------------------------------
D-2-2---4-4-4-4-4-5-5---7-7-7-7-7--------------------------------------
A-2-2---2-2-2-2-2-5-5---5-5-5-5-5--------------------------------------
E-0-0-------------3-3--------------------------------------------------

Wake up! Wake up! Woah!
Wake up! Wake up! Woah!
A shot to the head
Just so you can be fed
Will you wake up wake up woah?

Repeat below 4x with distortion and play high notes during last two repeats
E---------------------------------|-12--12--12--12--12--12-------------
B---------------------------------|---12--12--12--12--12--12-----------
G-------4-4---4---------7-7---7---|------------------------------------
D-2-2-2-4-4---4---5-5-5-7-7---7---|------------------------------------
A-2-2-2-2-2---2---5-5-5-5-5---5---|------------------------------------
E-0-0-0-----------3-3-3-----------|------------------------------------





Comments


Popular Goldfinger tabs & chords
January 2 Bass Tabs
My Girlfriend's Shower Sucks Bass Tabs
Superman 3 Bass Tabs
99 Red Balloons 1 Chords
Happy Chords
This Lonely Place Chords
Bro 1 Tabs
Damaged Tabs
Mable 1 Tabs
Youth Tabs


Song lyrics



↑ Back to top | Tablatures and chords are parodies/interpretations of the original songs. You may use it for private study, scholarship, research or language learning purposes only
© 2014 AZChords.com Contact us | Privacy policy | DMCA | Add/correct tabs | Request tabs | Top 50 tabs