» » »

Open Your Eyes Tabs (ver.2)

Artists:  A B C D E F G H I J K L M N O P Q R S T U V W X Y Z # 

Open Your Eyes Tabs (ver.2)

Goldfinger
Rating:
0/5 (0 votes)

Hard to play? Try these video lessons and learn fast.
                Band- Goldfinger
Song- Open Your Eyes
Album- Open Your Eyes

This is my first ever tab, so don’t blame if it stinks. I’m a bit unsure about the little bridge bit before the chorus. This tab is for one guitar, I merged the two guitars together. If you have any corrections e-mail me.

Intro- Clean until the /// bit
p.m ………………………………………………………………………………………………………………………………………………………………………………………/ / /
e ----------------------------------------------------------------------------------
B ----------------------------------------------------------------------------------
G -----------------------------------------------------------------------9-9-9------
D -----------------------------------------------------------------------9-9-9------
A –2-2-2-9-9-9-9-9-5-5-5-7-7-7-7-7—2-2-2-9-9-9-9-9-5-5-5----------------------------
E –0-0-0-7-7-7-7-7-3-3-3-5-5-5-5-5-0-0-0-7-7-7-7-7-3-3-3----------------------------

Then Play… (with Distortion)

e ----------------------------------------------------------------------------------
B ----------------------------------------------------------------------------------
G ----------------------------------------------------------------------------------
D -2-2-2-9-9-9-9-9-5-5-5-7-7-7-7-7----2-2-2-9-9-9-9-9-5-5-5-7-7-7-7-7---------------
A –2-2-2-9-9-9-9-9-5-5-5-7-7-7-7-7—2-2-2-9-9-9-9-9-5-5-5-7-7-7-7-7------------------
E –0-0-0-7-7-7-7-7-3-3-3-5-5-5-5-5---0-0-0-7-7-7-7-7-3-3-3-5-5-5-5-5----------------

Verse-Clean except for the /// bit
p.m………………………………………………………………………………………………………………………………………………………………………………………………………………………
e ----------------------------------------------------------------------------------
B ----------------------------------------------------------------------------------
G ----------------------------------------------------------------------------------
D ----------------------------------------------------------------------------------
A –2-2-2-9-9-9-9-9-5-5-5-7-7-7-7-7—2-2-2-9-9-9-9-9-5-5-5-7-7-7-7-7------------------
E –0-0-0-7-7-7-7-7-3-3-3-5-5-5-5-5-0-0-0-7-7-7-7-7-3-3-3-5-5-5-5-5----------------

p.m…………………………………………………………………………………………………………………………………………………………………………………………/ / /
e ----------------------------------------------------------------------------------

B ----------------------------------------------------------------------------------
G ------------------------------------------------------------------------9-9-9-----
D ------------------------------------------------------------------------9-9-9-----
A –2-2-2-9-9-9-9-9-5-5-5-7-7-7-7-7—-2-2-2-9-9-9-9-9-5-5-5---------------------------
E –0-0-0-7-7-7-7-7-3-3-3-5-5-5-5-5--0-0-0-7-7-7-7-7-3-3-3---------------------------


Chorus- Distortion
e ----------------------------------------------------------------------------------
B ----------------------------------------------------------------------------------
G ----------------------------------------------------------------------------------
D -2-2-2-9-9-9-9-9-5-5-5-7-7-7-7-7----2-2-2-9-9-9-9-9-5-5-5-7-7-7-7-7---------------
A –2-2-2-9-9-9-9-9-5-5-5-7-7-7-7-7—---2-2-2-9-9-9-9-9-5-5-5-7-7-7-7-7---------------
E –0-0-0-7-7-7-7-7-3-3-3-5-5-5-5-5----0-0-0-7-7-7-7-7-3-3-3-5-5-5-5-5---------------

e ----------------------------------------------------------------------------------
B ----------------------------------------------------------------------------------
G ----------------------------------------------------------------------------------
D -2-2-2-9-9-9-9-9-5-5-5-7-7-7-7-7----2-2-2-9-9-9-9-9-5-5-5-7-7-7-7-7---------------
A –2-2-2-9-9-9-9-9-5-5-5-7-7-7-7-7—---2-2-2-9-9-9-9-9-5-5-5-7-7-7-7-7---------------
E –0-0-0-7-7-7-7-7-3-3-3-5-5-5-5-5----0-0-0-7-7-7-7-7-3-3-3-5-5-5-5-5---------------

Interlude- Distortion

e ----------------------------------------------------------------------------------

B ----------------------------------------------------------------------------------
G -9-0-9-0-9-0-9-0-9-0-9-0-9-0-9-0-10-10-10-----------------------------------------
D -9-0-9-0-9-0-9-0-9-0-9-0-9-0-9-0-10-10-10-10-10-10-10-----------------------------
A –7-0-7-0-7-0-7-0-7-0-7-0-7-0-7-0-8—8—8--8-10-10-10-10-----------------------------
E –-----------------------------------------8-—8-—8-—8------------------------------

Play Twice then play... (Clean)
p.m……………………………………………………………………………………………………………………………………………………………………………………………………………………
e ----------------------------------------------------------------------------------
B ----------------------------------------------------------------------------------
G ----------------------------------------------------------------------------------
D ----------------------------------------------------------------------------------
A –2-2-2-9-9-9-9-9-5-5-5-7-7-7-7-7—2-2-2-9-9-9-9-9-5-5-5-7-7-7-7-7------------------
E –0-0-0-7-7-7-7-7-3-3-3-5-5-5-5-5-0-0-0-7-7-7-7-7-3-3-3-5-5-5-5-5------------------

On this part Listen to song for timing (Distortion)
“Don’t wanna hate you…” 
                                                                                                                       p.m………………………………………………………………………………………………………………………
e ----------------------------------------------------------------------------------
B ----------------------------------------------------------------------------------
G ----------------------------------------------------------------------------------
D -7-7-----------9-9-------7-7------------------------------------------------------
A -7-7-----------9-9-------7-7------2-2-2-9-9-9-9-9-5-5-5-7-7-7-7-7—2-2-2-9-9-9-9-9-
E -5-5-----------7-7-------5-5–-----0-0-0-7-7-7-7-7-3-3-3-5-5-5-5-5-0-0-0-7-7-7-7-7- 
                                  
                       "IF YOU DON’T LOOK I’LL FORCE YOU TOO”
……………….…………………………   let ring  
e ----------------------------------------------------------------------------------
B ----------------------------------------------------------------------------------
G ---------------------------------------------------------------------9-9-9--------
D --------------------7------------------------------------------------9-9-9--------
A 5-5-5-7-7-7-7-7-----7-------------------------------------------------------------
E 3-3-3-5-5-5-5-5 ----5-------------------------------------------------------------

Outro- Distortion
On this Part one guitar plays the first riff of the interlude and the other plays this 

e ----------------------------------------------------------------------------------
B ---9---------9---------9---------9---------9---------9---------9---------9--------
G -------9----------9---------9---------9---------9--------9----------9-------------
D ----------------------------------------------------------------------------9-9-9-
A –---------------------------------------------------------------------------9-9-9-
E –---------------------------------------------------------------------------7-7-7-

I wasn’t too sure about some bits but it’s close enough to the song for me.


Order
Intro
Verse
Chorus
Verse
Chorus
Interlude
Chorus (play pattern 5 times instead of 4)
Outro
            
Hard to play? Try these video lessons and learn fast. | Correct




comments powered by Disqus
↑ Back to top | Tablatures and chords are parodies/interpretations of the original songs. You may use it for private study, scholarship, research or language learning purposes only