» » »

Goldfinger, Forgiveness Bass tabs (ver.1)

Artists:  A B C D E F G H I J K L M N O P Q R S T U V W X Y Z # 

Forgiveness Bass tabs (ver.1)

Goldfinger Tabs
 Rating:
4/5 (4 votes)
Forgiveness lessons Tabs too difficult? Try these video lessons and learn fast
                Song - Forgiveness
Artist - Goldfinger
Album - Stomping Ground

Intro
g-------------------------------------------
d---------------------------------------5---
a------5555-3333-3333------5555-7777-757-75-
e-3333----------------3333-----------------7

Verse 1
g-------------------------------------------
d---------------------------------------5---
a------5555-3333-3333------5555-7777-757-75-
e-3333----------------3333-----------------7

g-------------------------------------------
d-------------------------------------------
a------5555-3333-3333-----5555-3333-3333----
e-3333----------------3333------------------

g-------------------------------------------
d-------------------------------------------
a------5555-3333-3333-----5555-3333-3333----
e-0000----------------0000------------------

Chorus
g-------------------------------------------
d-------------------------------------------
a------5555-7777-3333------5555-7-77-77-7-33
e-3333----------------3333------------------

g------------------------------*-----------*
d------------------------------*-----------*
a------5555-7777-3333------5~--*-----------*
e-3333----------------3333-----*00000000000*

Play stars section on 1st chorus only.......

Verse 2
g-------------------------------------------
d-------------------------------------------
a------5555-3333-3333------5555-7777-----33-
e-3333----------------3333-----------000----

g-------------------------------------------
d-------------------------------------------
a------5555-3333-3333------5555-3333-3333---
e-3333----------------3333------------------

g-------------------------------------------
d-------------------------------------------
a------5555-3333-3333------5555-3333-3333---
e-0000----------------0000------------------

Chorus 2 (up to stars..) then...

Bridge (x4)
g-------------------------------------------
d-------------------------------------------
a----------5-53-32-20-055-------------------
e-3-32-20-0---------------------------------

After the 4th time hit open E to roll into chorus..

Chorus 3
g-------------------------------------------
d-------------------------------------------
a------5555-7777-3333------5555-7-77-77-7-33
e-3333----------------3333------------------

g-------------------------------------------
d-------------------------------------------
a------5555-7777-3333------5555-7777-7777---
e-3333----------------3333------------------

Outro
g-------------------------------------------
d-------------------------------------------
a------5555-7777-3333------5555-7777-7777---
e-3333----------------3333------------------

g-------------------------------------------
d-------------------------------------------
a------5555-7~--3~-------5~-----------------
e-3333--------------3333-----0~-------------


And thats it... easy song to play but sounds
awesome!

Any corrections? send them to me aswell so i
can see what i'm doin' wrong!!

Cheers..
DanDare - Bassist for LickItAnyway!!
            
Submit corrections

comments powered by Disqus
↑ Back to top | Goldfinger Bass for Forgiveness. Lyrics for acoustic guitar and electric guitar. Tablatures and chords are parodies/interpretations of the original songs. You may use it for private study, scholarship, research or language learning purposes only